Acordes de Guitarra » V »Victor Jara » Manifiesto (Tab)

Manifiesto
Victor Jara

Letras, Acordes y Tabs para Guitarra, Bajo y Ukulele

  •      SIm
     A)Yo no canto por catar
    LA       MIm    FA#m-SIm  
    ni por tener buena voz
    SIm
    canto porque la guitarra 
    LA        MIm   FA#m-SIm
    tiene sentido y razon
    MIm                    LA9
    tiene corazon de tierra
    MIm              LA9
    y alas de palomita
    RE           FA#m    LA-MIm
    es como el agua bendita
    RE           LA        RE
    santigua glorias y penas
    MIm                      LA9
    aqui se encajo mi canto
    MIm                LA9
    como dijera violeta
    
  • SIm
    Yo no canto por cantar
             LA       MIm FA#m7 SIm
    ni por tener buena voz
    SIm
    canto porque la guitarra
          LA       MIm  SIm
    tiene sentido y razón,
    
    
    MIm             LA
    tiene corazón de tierra
    MIm           LA
    y alas de palomita,
    RE         FA#m   LA  MIm
    es como el agua bendita
    RE       LA        RE
    santigua glorias y penas,
    
    
    
  •      Bm7                A                 Em                  F#m7
    E||---7--------5--3--|--5--------3--2--|--3--2--0--0--2--3--|--2------------|
    B||------------------|-----------------|--------------------|---------------|
    G||*-----------------|-----------------|--------------------|---------------|
    D||*-----------------|-----------------|--------------------|---------------|
    A||------------------|-----------------|--------------------|---------------|
    E||------------------|-----------------|--------------------|---------------|
    
    
     G7+/D             G7                 A                   Bm7                       
    --0--------------|-----------------|--------------------|----------------||
    -----------3--2--|--3--------2--0--|--2--0--------0--2--|--0-------------||
    -----------------|-----------------|--------2--2--------|---------------*||
    -----------------|-----------------|--------------------|---------------*||
    -----------------|-----------------|--------------------|----------------||
    -----------------|-----------------|--------------------|----------------||
    
    
    Verso:
      Bm7                                                                         
    
  • +
    ¡Colabora con nosotros!
    Envíanos tu versión de esta canción

Letra de Manifiesto
A)Yo no canto por catar
ni por tener buena voz
canto porque la guitarra
tiene sentido y razon
tiene corazon de tierra
y alas de palomita
es como el agua bendita
santigua glorias y penas
aqui se encajo mi canto
como dijera violeta
Guitarra trabajadora
con olor a primavera
Que no es guitarra de ricos
ni cosa que se parezca
mi canto es de los andamios
para alcanzar las estrellas
que el canto tiene sentido
cuando palpita en las venas
del que morira cantando
las verdades verdaderas
no las lisonjas fugaces
ni las famas extranjeras
sino el canto de una lonja
hasta el fondo de la tierra
Ahi donde llega todo
y donde todo comienza
canto que ha sido valiente
Siempre sera cancion nueva




[Manifiesto chords][Manifiesto cifra]
© LaCuerda.net · aviso legal · privacidad · es · en · pt · contacto