Acordes de Guitarra » V »Victor Jara » Te Recuerdo Amanda (Tab)

Te Recuerdo Amanda
Victor Jara

Letras, Acordes y Tabs para Guitarra, Bajo y Ukulele

  • E||------7-----7-----0--|-----0-----0--|-----------------0--|-----0-----0--|
    B||---------7-----5-----|--------5-----|-----5-----5--------|--------5-----|
    G||*--0-----------------|--6-----------|--------4-----7-----|--6-----------|
    D||*--------------------|--------------|--5-----------------|--------------|
    A||---------------------|--------------|--------------------|--------------|
    E||---------------------|--------------|--------------------|--------------|
    
    
                                          
    -----------0-----0--|---------------||
    -----5--------------|---------------||
    --------4-----7-----|--------------*||
    --5-----------------|--------------*||
    --------------------|---------------||
    --------------------|---------------||
    
          D            F#m
    Te recuerdo Amanda,
    LA calle mojada,
        G                
    
  •           RE      (VI-0)fa#m
    A) Te recuerdo, Amanda
    
       LA calle mojada
            SOL 
       Corriendo a la f√°brica
        DO               RE6
       Donde trabaja Manuel.
    
              RE      (VI-0)fa#m
    A) LA sonrisa ancha
    
       La lluvia en el pelo
             SOL 
       No importaba nada
       DO                     RE6
       Ibas a encontrarte con él
    
       Con él, con él, con él.
    
    
  • RE
    Te recuerdo Amanda
    FA#m
    La calle mojada
    SOL
    Corriendo a la f√°brica
    DO              RE
    Donde trabajaba Manuel
    RE
    La sonrisa ancha
    FA#m
    La lluvia en el pelo
    SOL
    No importaba nada
    DO                 RE
    Ibas a encontrarte con él
                                    SIm
    Con él, con él, con él, con él, con él
        LA
    Son cinco minutos
    
  •   G(b5)
    ||-7-7-0|-0-0--|-0-0-0|-0-0--|-0-0-0|------|
    ||--7-5-|--5---|----3-|--5---|----3-|------|
    ||------|6-----|--4---|6-----|--4---|------|
    ||5-----|------|5-----|------|5-----|------|
    ||------|------|------|------|------|------|
    ||------|------|------|------|------|------|
    
     |-7-7-0|-0-0--|-0-0-0|-0-0--|-0-0-0|----
     |--7-5-|--5---|----3-|--5---|----3-|----
     |------|6-----|--4---|6-----|--4---|----
     |5-----|------|5-----|------|5-----|----
     |------|------|------|------|------|----
     |------|------|------|------|------|---- Te rem
     
    
    D           3X,6X,F#m
    cuerdo Amanda
    
    LA calle mojada
    
  • +
    ¬°Colabora con nosotros!
    Envíanos tu versión de esta canción

Letra de Te Recuerdo Amanda
A) Te recuerdo, Amanda
Corriendo a la f√°brica
Donde trabaja Manuel.
La lluvia en el pelo
No importaba nada
Ibas a encontrarte con él
Con él, con él, con él.
B) Con él
Son cinco minutos
La vida es eterna
en cinco minutos
LA7+-SOL7+
Suena la sirena
LA7+-SOL7+
De vuelta al trabajo
Y tu caminando
Lo iluminas todo
LA7+-SOL7+
Los cinco minutos
Te hacen florecer.
A) Te recuerdo, Amanda...
B) Con él
Que partió a la sierra
Que nunca hizo da√Īo
Que partió a la sierra
Y en cinco minutos
Quedó destrozado
Suena la sirena
De vuelta al trabajo
Muchos no volvieron
Tampoco Manuel.
A) Te recuerdo, Amanda
Corriendo a la f√°brica
Donde trabajaba Manuel.




[Te Recuerdo Amanda chords][Te Recuerdo Amanda cifra]
© LaCuerda.net · aviso legal · privacidad · es · en · pt · contacto