Acordes de Guitarra » V »Victor Jara » el cigarrito (Tab)

el cigarrito
Victor Jara

Letras, Acordes y Tabs para Guitarra, Bajo y Ukulele

  • intro: G,A G  A,G A  D
    (rasgueo) abajo arriba abajo mano abajo - es un ritmo lento
    [nota] cuando es  G,A  quiere decir que
    rasgueo completo G, y A es uno abajo y despues
    viene G rasgueo completo se repite
    lo mismo con A,G A  y despues viene D rasgueo completo
    en el coro es lo mismo
    
    
            F#m            G
     Voy a hacerme un cigarrito,
        A          D
      acaso tengo tabaco,
            F#m           G
      si no tengo, a`onde saco
             A                 D
      lo mas cierto es que no pito
    
    
    CORO:
    
  •            F#m           G
    A)Voy a hacerme un cigarrito,
          A          D
      acaso tengo tabaco,
            F#m           G
      si no tengo, aonde saco
             A                 D
      lo mas cierto es que no pito
    
    
    CORO:
            G
    Ay, ay, ay me queri??
            A
    ay, ay, ay me queri??
              D
    ay, ay, ayyy
    
               F#m           G
    B)Voy a hacerme un cigarrito,
    
  • |----------------------|
    |--------1----1-----1--|
    |*-----0------0-----0--|
    |*---------------------|
    |---3------3-----3-----|
    |----------------------|
    
    
    DO      MIm         Fmaj7
    Voy a_hacerme un cigarrito
       SOL         DO
    acaso tengo tabaco
           MIm            Fmaj7
    si no tengo de’onde saco
           SOL               DO
    lo mas cierto es que no pito.
    
      Fmaj7
    Ay ay ay, me queris,
      SOL
    
  •             (C)      F             C         F                       G            F   
    E||----------------|-----------------------|----------------------|----------------------|
    B||----------------|-------1----1----------|-------1----1----1----|-------3----3----1----|
    G||----------------|-----2------2----0---0-|-----2------2------2--|-----4------4------2--|
    D||-------------2--|--3------3---------2---|--3------3-----3------|--5------5-----3------|
    A||----------3-----|---------------3-------|----------------------|----------------------|
    E||----------------|-----------------------|----------------------|----------------------|
    
    
      G            C/E       C                        F             C               
    -----------------------|-----------------------|------------------------|
    -------3----3----1---1-|-------1----1----------|------1------1----------|
    -----4------4------0---|-----0------0----0---0-|----2---2----2----0---0-|
    --5------5-----2-------|-------------------2---|--3-------3---------2---|
    -----------------------|--3------3-----3-------|----------------3-------|
    -----------------------|-----------------------|------------------------|
    
    
      F                      G              F         G             C/E             
    -----------------------|-----------------------|------------------------|
    
  • El cigarrito.   ( VÍCTOR  JARA )
    Transcripción para armónica y acompañamiento de guitarra por: Robinsón Pérez.
                    Em              F                               (  guitarra: en mi )
           6    7    (7) (7)  (7) (7) 7 7                      ( armónica:  C )
    A)	voy a hacerme un cigarrito
       G7                C
    (6) 6  6  6  6   6  6  6
    acaso tengo tabaco,
          Em                  F
    6  7  (7)(7) (7)   (7) 7  7
    si no tengo ¿de`ón de saco?
     G7                     C
    (6) 6   6    6   6   6  6  6
    Lo más cierto es que no pito.
     F         C      F
    (6) (7) 7   (6) (7) 7
    Ayayay, me querís,
      G    F        G
    (7) 7 (8) (7) 7  (8)
    ayayay, me querís,
      C
    (7) (6)7
    ayayay.
    
                 II
    
    Voy a hacerme un cigarrito
    Con mi bolsa tabaquera
    Lo fumo y boto la cola
    Y recójala el que quiera.
    
    Ayayay, me querís,
    Ayayay, me querís,
    Ayayay
    
                III
    
    Cuando amanezco con frío
    Prendo un cigarro de a vara
    Y me calienta la cara
    Con el ci
  • +
    ¡Colabora con nosotros!
    Envíanos tu versión de esta canción

Letra de el cigarrito
(rasgueo) abajo arriba abajo mano abajo - es un ritmo lento
rasgueo completo G, y A es uno abajo y despues
viene G rasgueo completo se repite
lo mismo con A,G A y despues viene D rasgueo completo
en el coro es lo mismo
Voy a hacerme un cigarrito,
acaso tengo tabaco,
si no tengo, a`onde saco
lo mas cierto es que no pito
Ay, ay, ay me queri??
ay, ay, ay me queri??
ay, ay, ayyy
Voy a hacerme un cigarrito,
con mi bolsa tabaquera,
lo fumo boto la cola,
y recojalo el que quiera
Ay, ay, ay me queri??
ay, ay, ay me queri??
ay, ay, ayyy
Cuando amanezco con frio,
prendo un cigarro de habara,
y me caliento la cara,
con el cigarro ensendio
Ay, ay, ay me queri??
ay, ay, ay me queri??
ay, ay, ayyy
ESTA ES MI PRIMERA TRANSCRIPCION OJALA Q LES GUSTE




[el cigarrito chords][el cigarrito cifra]
© LaCuerda.net · aviso legal · privacidad · es · en · pt · contacto