Acordes de Guitarra » V »Vicente Fernandez » Me voy a quitar de enmedio (Tab)

Me voy a quitar de enmedio
Vicente Fernandez

Letras, Acordes y Tabs para Guitarra, Bajo y Ukulele

  • Dm 
     si nuestro amor se cacaba
                        Dm
    si nuestro amor termina
                   Gm
    ya nome queda nada 
    C7            F
    para vivir la vida
    
                    Em7(-5)
    si ya olvidaste todo 
    A7                Dm
    tambien tus juramentos
                   E7
    y llenaste de todo 
                    A7
    mi mundo de recuerdos
    
    Dm              A7
    nomas por tu soberbia
    
  • e-----5--4--5--4--5--4--5-------------------------
    B--------------------------5-----5-----------
    G-----------------------------6-------------
    D------------------------------------------
    A------------------------------------------
    E------------------------------------------
    
    
    
    e------6--5-----------6--5---------------------
    B------------5-----5--------6-----------------
    G---------------6--------------7-------------
    D------------------------------------------
    A------------------------------------------
    E------------------------------------------
    
    
    e-----11--10--------------11--10-------------------
    B-------------10------10----------11-------------
    G-----------------11------------------12-------
    
  • e--5-6-5-3-5-4-5-6-3---------6-3--------6-5------------------------
    b--------------------------5-----------5----6-3--------------------
    g--------------------6-6-6-------6-6-6-----------------------------
    d------------------------------------------------------------------
    a------------------------------------------------------------------
    E------------------------------------------------------------------
    
    e--10-11-10-8-10-9-10-11-8-----------11-8----------11-10-----------
    b----------------------------------10------------10------11-8------
    g--------------------------11-11-11------11-11-11------------------
    d------------------------------------------------------------------
    a------------------------------------------------------------------
    E------------------------------------------------------------------
    
    e--13-13-13-13-13-13-----13--13-13-13-13-13-13-----13--------------
    b--11-11-11-11-11-11-----11--15-15-15-15-15-15-----15--------------
    g-------------------12-12---------------------14-14----------------
    d------------------------------------------------------------------
    a------------------------------------------------------------------
    E------------------------------------------------------------------
    
  • +
    ¡Colabora con nosotros!
    Envíanos tu versión de esta canción

Letra de Me voy a quitar de enmedio
si nuestro amor se cacaba
si nuestro amor termina
ya nome queda nada
para vivir la vida
si ya olvidaste todo
tambien tus juramentos
y llenaste de todo
mi mundo de recuerdos
nomas por tu soberbia
no das explicaciones
encima me condenas
sin escuchar razones
si terminar conmigo
ya lo tenias pensado
dejame estar contigo
aunque no este a tu lado
si me dejas no me olvides
por favor nunca me olvides
tu sabes cuanto te quiero
que desde siempre te quise
si me dejas no me olvides
por favor nunca me olvides
me voy a quitar de en medio
que mas quieres que mas pides




[Me voy a quitar de enmedio chords][Me voy a quitar de enmedio cifra]
© LaCuerda.net · aviso legal · privacidad · es · en · pt · contacto