Acordes de Guitarra » U »El Ultimo ke zierre » Altero mi cuerpo (Tab)

Altero mi cuerpo
El Ultimo ke zierre

Letras, Acordes y Tabs para Guitarra, Bajo y Ukulele

  • C                  A#                  F               G     F
    Altero mi cuerpo.. Busco sensaciones.. Pa’ sentirme vivo
    C                     A#                  F             G     F
    Nunca me arrepiento.. De lo que me hago.. Mas lo necesito
    C                     G
    No me busques en las calles
    A#                     F
    cuando el sol vaya por ellas,
    C               G
    estaré solo de noche
    A#                F
    agarrado a una botella.
    
    /--------------------------------------------------
    /-------------8-8----------------------------------
    /-----------9-----10-9-10-12-10--------------------
    /--10-10-10---------------------12--12-12-10---10--
    /-------------------------------------------12-----
    /--------------------------------------------------
    
    
  • Bueno este es el solo de este tema del disco en directo, cualkiera de
    los dos total es el mismo solo:
    
    |-----------------------------------------|
    |----------------8-8----------------------|
    |--------------9-----10-9--12b--10-7------|
    |-/(10)-10--10----------------------------|
    |-----------------------------------------|
    |-----------------------------------------|
    
    |--------------------------------------------------------------|
    |--------------------------------------------------------------|
    |--7-7-7-----------10-10-10-9-7--5h7p5h7p5---------------7-----|
    |--------10-7--10--------------------------7-----10-9-10---10--|
    |--------------------------------------------------------------|
    |--------------------------------------------------------------|
    
    |-----------------------------------|
    |----------8-8----------------------|
    |--------9-----10-9--12b--10-7------|
    |-----10----------------------------|
    |-----------------------------------|
    |-----------------------------------|
    
    |-----------
  • +
    ¡Colabora con nosotros!
    Envíanos tu versión de esta canción

Letra de Altero mi cuerpo
Altero mi cuerpo.. Busco sensaciones.. Pa’ sentirme vivo
Nunca me arrepiento.. De lo que me hago.. Mas lo necesito
No me busques en las calles
cuando el sol vaya por ellas,
estaré solo de noche
agarrado a una botella.
Donde siempre paso frío,
y a menudo siento miedo.
Donde el que quiere se pierde,
donde el que quiere me encuentra.
Altero mi cuerpo.. Busco sensaciones.. Pa’ sentirme vivo
Nunca me arrepiento.. De lo que me hago.. Mas lo necesito.
Y si me encuentras llorando,
de rodillas sobre el vomito
que salió de mis entrañas,
no pienses que estoy sufriendo
la,ra,la lalala larala
la,ra,la lalala larala
la,ra,la lalala larala
la,ra,la lalala larala
Altero mi cuerpo.. Busco sensaciones.. Pa’ sentirme vivo
Espero que puedan sacar el punteo.. Me quedo muy cortado..
Traten de acomodarlo o de sacarlo de la tab de al lado que es
el mismo punteo..
Bueno la verdad que yo no sé sacar música de oido pero me parece
que la versión que estaba acá estaba mal..
Si alguien lo puede sacar bien, avisenme!!
Por cualquier cosa mi mail es no_identificado.7@hotmail.com
Hasta otra..




[Altero mi cuerpo chords][Altero mi cuerpo cifra]
© LaCuerda.net · aviso legal · privacidad · es · en · pt · contacto