Acordes de Guitarra » U »El Ultimo ke zierre » Skizofreniko bajo el sol (Tab)

Skizofreniko bajo el sol
El Ultimo ke zierre

  • Letra y Acordes
    ------
    A
    A G B G A
    A G F G
    
    Estrofa:
    --------
    A       G      F        G
    ¿A dónde vas?. Parece que despiertas.
    A       G      F        G
    ¿A dónde vas?. La calle está desierta.
    A       G      F        G
    Ya ni las ratas buscan en la basura,
    A       G      F        G
    y no hay lugar que admita tu locura.
    
    Cambio:
    -------
    A C G F G
    
    
  • Tablatura
    e-----------------------------------------
    b-----------------------------------------
    g-------------------------------10p9------
    d--10-10-9-x-7-x-5--10-10-9-x-7------10-9-(4X)
    a-----------------------------------------
    E-----------------------------------------
    
    INTRO 2
    e-----------------------------------------
    b---------------------------------------------
    g---------9h10p9------------------------------
    d--7-9-10--------10-9--(2X)----7-9-10-9h10p9--
    a---------------------------------------------
    E---------------------------------------------
    
    A     G     F                 G
    adonde vas parece ke despiertas
    adonde vas la kalle está desierta
    ya ni las ratas buskan en la basura
    y no hay lugar ke admita tu lokura
    
  • +
    ¡Colabora con nosotros!
    Envíanos tu versión de esta canción

Letra de Skizofreniko bajo el sol
Estrofa:
¿A dónde vas?. Parece que despiertas.
¿A dónde vas?. La calle está desierta.
Ya ni las ratas buscan en la basura,
y no hay lugar que admita tu locura.
Cambio:
Estribilho:
El sol me está quemando,
el sol me está ensuciando.
Cambio:
Letra:
¿A dónde vas?. Parece que despiertas.
¿A dónde vas?. La calle está desierta.
Ya ni las ratas buscan en la basura,
y no hay lugar que admita tu locura.
El sol me está quemando, el sol me está ensuciando.
A donde fui apenas lo recuerdo.
Lo que tomé, ¡joder!. Lo tomé todo.
No queda nada dentro de mis bolsillos.
¡Que fue de mí! ¡Ja, pregunta a mis amigos!
El sol me está jodiendo, el sol me está matando.
Vámonos, yo te llevaré a un lugar
en donde descansan otros tantos como tú.
Vámonos, alguien te está esperando,
tu sabrás, ¿dejaste algo por pagar?
Vámonos y honremos a los muertos.



© LaCuerda.net · aviso legal · privacidad · contacto