Acordes de Guitarra » U »El Ultimo ke zierre » Hay quién nace rey (Tab)

Hay quién nace rey
El Ultimo ke zierre

  • Tablatura
    E||----------------------------|----------------------------||
    B||----------------------------|----------------------------||
    G||*---------------------------|---------------------------*||
    D||*--4--------4--4--------4-4-|--4------------------------*||
    A||---4--------4--4--------4-4-|--4-------------2--3--2--0--||
    E||---2--------2--2--------2-2-|--2-----------2-------------||
    
    
    ---------------------------||
    ---------------------------||
    ---------------------------||
    ---------------------------||
    --------4-2-0----0--4-2-0--||
    --2--2---------------------||
    
    
    F#            F#
    ¿Quién te dice lo que es bueno?,
    E                       B
    ¿Quién te dice lo que es malo?,
    
  • +
    ¡Colabora con nosotros!
    Envíanos tu versión de esta canción

Letra de Hay quién nace rey
¿Quién te dice lo que es bueno?,
¿Quién te dice lo que es malo?,
¿El patrón?, ¿El alcalde?,
¿O es tu cuerpo quien lo sabe?.
Ninguno te dice: “guarda tu dinero”,
ninguno te dice: “hoy puedes quedarte en casa”,
ninguno te dice: “tranquilo hombre, serás tu primero”,
ninguno te dice: “tómatelo con más calma”.
Y el peón tiene su sino:
su oficio es el sacrificio
y vivir con la ironía
de elegir a quién le humilla.
¿Quién te dice lo que es bueno?,
¿Quién te dice lo que es malo?,
¿El patrón?, ¿El alcalde?,
¿O es tu cuerpo quien lo sabe?.
Ninguno te dice que... te está matando,
ninguno te dice que es lo que te está oxidando,
hay quién nace rey y hay quién nace mulo,
hay quién nace reina y hay quién nace en las basuras.



© LaCuerda.net · aviso legal · privacidad · contacto