Acordes de Guitarra » U »El Ultimo ke zierre » Está podrido todo (Tab)

Está podrido todo
El Ultimo ke zierre

Letras, Notas, Punteos, Tablaturas y Acordes de Guitarra (Tabs & Chords)

  • Tablatura
    INTRO: F E A x4
    
    E||------------------------|-------------------|------------------------|
    B||---------------------3--|-----3-------------|---------------------6--|
    G||------------------------|----------2--------|------------------------|
    D||--3----3--3--2----2-----|-------------------|--3----3--3--2----2-----|
    A||--3----3--3--2----2-----|-------------------|--3----3--3--2----2-----|
    E||--1----1--1--0----0-----|-------------------|--1----1--1--0----0-----|
    
    
    ------------------------|------------------------|--------------|
    -----5----3--5--3-------|------------------------|--------------|
    -------------------5----|------------------0--2--|--5--2--------|
    ------------------------|--3----3--3--2----------|--------------|
    ------------------------|--3----3--3--2----------|--------------|
    ------------------------|--1----1--1--0----------|--------------|
    
    
    ------------------------|-----------|-----------|-----------|
    ------------------3--5--|-----------|-----------|-----------|
    
  • +
    ¡Colabora con nosotros!
    Envíanos tu versión de esta canción

Letra de Está podrido todo
Se me pone mala sangre al verla por la calle
sofocada y como puede, con las piernas hinchadas,
anda fregando suelos la madre del chiquillo,
al que encerrasteis ayer y sisa a su marido.
Todito pa su niño que tenéis en presidio
por media cuarta de hachís.
( F E A x4 )
Me da vergüenza ajena,
encerrando a un chiquillo
pensáis que hacéis justicia.
pues yo me fumo de todo, de todo, de todo.
Y me tiro de todo, de todo, de todo.
Y que se enteren todos, todos, todos.
Porque hago igual que todos, que todos, que todos.
Y unos estamos fuera, fuera, fuera.
Y otros están dentro, dentro, dentro.
Y unos lo ganan todo, todo, todo.
Y otros lo pierden todo, todo, todo.
Legalizarlo todo, todo, todo.
Y soltarlos a todos, todos, todos.
Y hay que decirlo todo
pa que se enteren todos,
que está podido todo.
SOLOS ( BASE E A E A A E A E )



© LaCuerda.net · Aviso Legal · Privacidad