Acordes de Guitarra » T »el Tri » Viejas De Vecindad (Tab)

Viejas De Vecindad
el Tri

Letras, Acordes y Tabs para Guitarra, Bajo y Ukulele

  •    C      Em       Am                  C      Em      Am
    e------------------------------0----------------------------------0---
    B--------------------------1-----1----------------------------1-----1-
    G------0-------0-------2-----2------------0-------0-------2-----2-----
    D----2---2---2---2---2---2--------------2---2---2---2---2---2---------
    A--3-------2-------0--------------0-2-3-------2-------0---------------
    E----------------------------------------------------------------------
       G 
    e--3~~~~~---
    B--3~~~~~---
    G--0~~~~~---
    D-----------
    A-----------
    E--3~~~~~---
    
    EL VERSO ES IGUAL OBSERVEN CON LOS ACORDES LOS TIEMPOS, 
    AL FINAL DEL A-B HECHENLE DE SU COSECHA QUE A MI YA ME DIO GUEVA JAJA
    
    A)
    C    Em             Am
    
  • |-----------------------------|
    |-3-----0-2-----0-0-----------|
    |---2-------2-------2-------2-|
    |-----0-------0-------2---2---|
    |-----------------------1-----|
    |-----------------------------|
    
    |-------------------------------|
    |-0-3-----0-2-----0-0-----------|
    |-----2-------2-------2-------2-|
    |-------0-------0-------2---2---|    x2
    |-------------------------1-----|
    |-------------------------------|
    
    
    G F 
    
    
    Parte A:
    
    
  • hola amigos, les traigo unas partituras nuevas que al parecer no 
    aparecen en el internet, me costo un poco de trabajo sacarlas puesto 
    que no tengo ni un año tocando este instrumento pero espero que les 
    guste a los fans del rock-blues .
     
    ''Viejas de Vecindad''
    El tri
    autor: Alex Lora
     
    harmonica afinada en   re (eso creo)
     
    al principio se toca el solo de guitarra y la harmonica acompaña:
     
    5 -1/2 tiempo-   4 -3 tiempos-  (4) 4 (3) (2) 
    5 -1/2 tiempo-   4 -3 tiempos-  (4) 5 (4) (3)
    5 -1/2 tiempo-   4 -3 tiempos-  (4)
     
     
    empieza la bateria:
    (1) 2 (2) 2  (1) 2 (2) 2 (2)
     
     
    cantando:
    hay gentes que se fijan mucho, en la paja del ojo ajeno......etcetera.
     
    chismes de lavadero, viejas de vecindad.....etcetera.
     
    mas o menos a la mitad se toca lo mas importante y con muchas ganas:
     
    5 -1/2 tiempo-   4-3 tiempos-  (4) 4 (3) (2)
    5-1/2 tiempo-    4-3 tiempos-  (4)
     
    (1) 2 (2) 2  (1) 2 (2) 2 (3) (2) (3) (2) (3) (2) (3) 4 (4) 4 (3) (2)
    (2) (3) (2) (3) (2) (
  • +
    ¡Colabora con nosotros!
    Envíanos tu versión de esta canción

Letra de Viejas De Vecindad
Parte A:
Hay gentes que se fijan mucho
en la paja del ojo ajeno
y nunca se dan cuenta
de la viga que traen en el trasero
Hay quienes se dedican
a criticar a los demas
y llegan a hacer del chisme
una forma de vivir
una profeción
Parte B:
Chismes de lavadero
Viejas de vecindad
Siempre pensando que mentiras inventar

Parte A:
Hay unos que son celosos
hay otros que son envidiosos
algunos otros implemente
les caiste mal
Me recuerdan a las comadres
jugando canasta en las tardes
y haciendo del chisme caliente
una forma de vivrir
una institucion
Parte B:
Chismes de lavadero
Viejas de vecindad
Siempre sacandose al balcon con la suciedad
Parte B:
Chismes de lavadero
Viejas de vecindad
Siempre pensando que mentiras inventar
Parte B:
Chismes de lavadero
Viejas de vecindad
Siempre quedadno bien con la suciedad
Parte B:
Chismes de lavadero
Viejas de vecindad
Siempre sacandose al balcon con la suciedad




[Viejas De Vecindad chords][Viejas De Vecindad cifra]
© LaCuerda.net · aviso legal · privacidad · es · en · pt · contacto
DINAMICO