Acordes de Guitarra » T »el Tri » Oye Cantinero (Tab)

Oye Cantinero
el Tri

  • Letra y Acordes
    MI7 LA MI7 SI7 LA MI7
    
    
    MI7
    Oye cantinero sírveme otra copa por favor
    LA                                              MI7
    quiero estar borracho yo quiero sentirme de lo "pior"
    SI7                 LA                        MI7
    quiero tomar mucho quiero tomar mucho pa' olvidar
    
    
    MI7
    No importa el dinero aquí traigo pa' pagar
    LA                                MI7
    oye cantinero damelo que quiero tomar
    SI7              LA                  MI7
    ya tengo derecho yo ya soy mayor de edad
    
    
    MI7
    
  • Letra y Acordes
    E
    Oye cantinero
     
    sirveme otra copa por favor
    A
    quiero estar borracho
                                E
    yo quiero sentirme de lo "pior"
    B7
    quiero tomar mucho 
    A                      E
    quiero tomar mucho pa' olvidar 
    
    
    E
    No importa el dinero 
    
    aqui traigo pa' pagar
    A                          E
    oye cantinero damelo que quiero tomar
    
  • Tablatura
    CUERDAS   :654321
    NOTAS     :EADGBe
    
    E         -022100-
    A         -002220-
    B         -224442-
    
    
    |------|
    |NOTA: |
    |---------------------------------------------------------------------------------------------------------------------------|
    |h: es 'hammer-on' y significa literalmente martilleo. La nota que esta antes de la h la tocas poniendo el dedo en el       |
    |traste que dice el número antes de la h y la haces vibrar. Luego pones OTRO dedo en la nota del número después de          |
    |la h pero NO vuelves a hacer vibrar la cuerda. Entonces como usaste una misma vibración para las dos notas, se             |
    |hace un efecto de ligado que se usa mucho en trova.                                                                        |
    |---------------------------------------------------------------------------------------------------------------------------|
    |p: es 'pull-off' y significa literalmente jalar. Es exactamente lo mismo que la h pero al revés. Puedes notar que el       |
    |efecto de ligado de la h siempre va de un numero menor a uno mayor. Pues la p es al revés, va de uno mayor a uno           |
    |menor porque cuando haces vibrar la cuerda de la nota del número antes de la p, pones OTRO dedo en la nota del             |
    |número depués de la p (si el número es 0 no pones ningun dedo pues es nota abierta) y luego sueltas el primer dedo         |
    
  • Tablatura
    -------------------------------------------------------
    -------------------------------------------------------
    -------------------------------------------------------
    ---0-1-2-0-1-2-0---------O-P-2-------0-----------------
    -2---------------2-1-0---------0-1-2---2-1-0-------0-1-
    -----------------------3---------------------3-0-0-----
    
               4 VECES                        2 VECES     
         RIT 1 ---------| 4             RIT 2 --------|
    -------------------------------------------------------
    -------------------------------------------------------
    ------------------------------------0-1-2-----4---4----
    -----0-1-2------------------------2-------0-0---0------
    -2-2-----------4---5-----------------------------------
    -----------O-0---0-------------------------------------           
    
    RIT I (2 VECES)         RIT 3------|   RIT 4---------|
    -------------------------------------------------------
    -------------------------------------------------------
    ----------------------
  • Tablatura
    e-----------------------------------------------------
    b-----------------------------------------------------
    g-----------------------------------------------------
    d---0-1-2-0-1-2-0-1-2-0---------2~--------------------
    a-1---------------------1-0-1-0-----------------------
    e-----------------------------------------------------
    
    
    
    
    e-----------------------------------------------------
    b-----------------------------------------------------
    g-----------------------------------------------------
    d---0-1-2-0------------------0-1-0---0-1-2------------
    a-1----------2-0-----------1-------1------------------
    e----------------3-0-----0----------------------------
    
    Banda aqui les va lo que es el principio de la cancion 
    de OYE CANTINERO no ha sido puesta asi que aver si les 
    gusta. se oye bien nadamas es de que le agarren el ritmo
  • +
    ¡Colabora con nosotros!
    Envíanos tu versión de esta canción

Letra de Oye Cantinero
Oye cantinero

sirveme otra copa por favor
quiero estar borracho
yo quiero sentirme de lo "pior"
quiero tomar mucho
quiero tomar mucho pa' olvidar
No importa el dinero
aqui traigo pa' pagar
oye cantinero damelo que quiero tomar
ya tengo derecho yo
ya soy mayor de edad
Oye cantinero no te hagas del rogar
yo se lo quiero
y me quiero emborrachar
pues la mujer que quiero
con otro se fue a acostar
Oigame señor,
que a usted nada le puedo servir
este manicomio no tiene servicio de bar
y no soy cantinero
soy el loquero de este hospital.



© LaCuerda.net · aviso legal · privacidad · contacto