Acordes de Guitarra » T »el Tri » A.D.O. (Tab)

A.D.O.
el Tri

Letras, Acordes y Tabs para Guitarra, Bajo y Ukulele

  •            A
    Estoy esperando mi camion 
    
    en la terminal del A.D.O.
             D7
    estoy esperando mi camion
    
    en la terminal del A.D.O.
             E
    Quiero que me lleve muy lejos
    D7                A   E
    y a la chingada de aqui. 
    
    
               A
    No me he podido consolar 
    
    desde que mi novia me dejo 
             D7
    no me he podido consolar 
    
  •    A5 A6 A5 A6 A5 A5 A6 A5 A5 A6 A5 A6
    A|-77-99-77-99-77-99-77-99-77-99-77-99-
    E|-55-55-55-55-55-55-55-55-55-55-55-55-
    
       Riff A Blues           Riff D Blues           Riff E Blues
       A5 A6  A7  A6          D5 D6  D7  D6          E5  E6   E7  E6
    A|-77-99-1010-99-|     A|-77-99-1010-99-|     D|-99-1111-1212-1111-|
    E|-55-55-5-5--55-|     E|-55-55-5-5--55-|     A|-77-7-7--7-7--7-7--|
    
    
    Intro: pero toda la demás banda los veo muy aplatanados me cae ja…
    D|---------|
    A|-5-5/7---|
    E|-3-3/5---|
    
                                       Riff A-1
    Ok a la voz de puto el que no cante.
                                    Riff D            Riff A
    Estoy esperando mi camión en la terminal del A.D.O
              Riff D                                  Riff A
    
  •   E---------------------------------|
      B---------------------------------|
      G---------------------------------|
      D--9---9--11---9--12---9--11---9--|  (2 VECES)
      A--7---7---7---7---7---7---7---7--|
      E---------------------------------|
    
    
       (parte 4)
      E-----------------------|
      B-----------------------|
      G-----------------------|
      D-----------------------|
      A---7----8----9---------|
      E---5----6----7---------|
    
    
    
       (parte 1)                                          (parte 1)
       Estoy esperando mi camión en la terminal del A.D.O.
    
  •   E-----------------------------------------------------------
      B------------------------------------------------------------|
      G------------------------------------------------------------|
      D------------------------------------------------------------|
      A--9---9---11--9---9---9---11--9---9---9--11---9---9---9--11-|
      E--7---7---7---7---7---7---7---7---7---7---7---7---7---7---7-|
      
    
       (parte 2)
    
      E-----------------------------------------------------------|
      B-----------------------------------------------------------|
      G-----------------------------------------------------------|
      D--9---9---9---11--9---9---9---11--9---9---9--11---9---9----|
      A--7---7---7---7---7---7---7---7---7---7---7---7---7---7----|
      E-----------------------------------------------------------|
    
    
       (parte 3)
    
    
  • E.CABALLERO
    
    G------------------------------------------
    D-22-4-5-4-22-4-5-4-22-4-5-4-22-4-5-4------
    A------------------------------------------
    E------------------------------------------
    
    G-22-4-5-4--22-4-5-4-----------------------
    D------------------------------------------
    A------------------------------------------
    E------------------------------------------
    
    'YO LA TRATE COMO UNA REINA'
    
    G-2-2-2-2----7-7-7-7-----------------------
    D------------------------------------------
    A------------------------------------------
    E------------------------------------------
    
    REPETIR TODO...
  • Este es un acompañamiento ke puedes hacer con la lira,
    suena chido y es muy facil...
    
     e---------------
     B---------------
     G---------------
     D---------------
     A---6--7--8--7--
     E--4--4--4--4---       X3
    
    
     e---------------
     B---------------
     G---------------
     D---------------
     A---6--7--8--9--
     E--4--4--4--4---       X1
    
    
     e----------------
     B----------------
     G----------------
     D----------------
     A---8--9--10--9--
     E--6--6--6---6---      X2
    
    
     e---------------
     B---------------
     G---------------
     D---------------
     A---6--7--8--7--
     E--4--4--4--4---       X2
    
    
     e-------------------
     B-------------------
     G-------------------
     D-------------------
     A---10--11--12--11--
     E--8---8---8---8----   X2
    
    
     e----------------
     B----------------
     G----------------
     D----------------
     A---8--9--10--9--
     E--6--6--6---6---      X2
    
    
     e---------------
     B---------------
     G---------------
     D---------------
     A---6--7--8--7--
     E--4--4--4--4---      
  • +
    ¡Colabora con nosotros!
    Envíanos tu versión de esta canción

Letra de A.D.O.
Estoy esperando mi camion
en la terminal del A.D.O.
estoy esperando mi camion
en la terminal del A.D.O.
Quiero que me lleve muy lejos
y a la chingada de aqui.
No me he podido consolar
desde que mi novia me dejo
no me he podido consolar
desde que mi novia me dejo
no me consuelan las "chaquetas"
ni las pastas ni el alcohol.
Yo la trate como a una reina
le di todo lo mejor
le di todo mi dinero
y le di todo mi amor
y sin embargo, ella me abandono
estoy esperando mi camion
en la terminal del A.D.O.
No me he podido consolar
desde que mi novia me dejo
no me he podido consolar
desde que mi novia me dejo
no me consuela ni la mota
ni las pastas ni el alcohol.
Yo la trate como a una reina
le di todo lo mejor
le di todo mi dinero
y le di todo mi amor
y sin embargo, ella me abandono
estoy esperando mi camion
en la terminal del A.D.O.
estoy esperando mi camion
en la terminal del A.D.O.
Quiero que me lleve muy lejos
y a la chingada de aqui.




[A.D.O. chords][A.D.O. cifra]
© LaCuerda.net · aviso legal · privacidad · es · en · pt · contacto