Acordes de Guitarra » T »Tranzas » Morí (Tab)

Morí
Tranzas

Letras, Acordes y Tabs para Guitarra, Bajo y Ukulele

  •              G1                     G2
    
    E------(3)----3------(2)-|-----(3)----3-----(2)--|
    B----------3-----3-------|---------3-----3-------|
    G------------0-----0-----|------------0----0-----|
    D------------------------|-----------------------|
    A------------------------|0/3--(3)----------(3)--|
    E-0/3--(3)-----------(3)-|-----------------------|
               
                 G1                     G2
    
    E------(3)----3------(2)-|-----(3)----3-----(2)--|
    B----------3-----3-------|---------3-----3-------|
    G------------0-----0-----|------------0----0-----|
    D------------------------|-----------------------|
    A--3/5-------------------|-----(3)----------(3)--|
    E------(3)-----------(3)-|-3/5-------------------||
    
    Antes de darte los acordes, debes tener en cuenta que:
    La primera estrofa la tienes que digitar, y las otras 
    
  • Intro: G C = X 2
    
    G
    Y preguntas por mi
    C
    Qué como me va
               G
    Haber como tome 
    
    Tantas cosas que hable
          C
    De la Soledad
                Em
    Que si estoy bien o mal
                A
    Que si puedo reir
                 D
    O si puedo llorar...
    
    G
    
  •                  SOL             DO 
    Y preguntas por mí, que como me va
                  SOL                  RE 
    haber como tomé tantas cosas que hablé
        DO              MIm   
    de la soledad que si estoy bien o mal
       LA                         RE 
    que si puedo reir o si puedo llorar.
    
                     SOL             DO 
    Y preguntas por mi por curiosidad
                   SOL                  RE 
    y quisiera decir que te extraño a radiar
        DO              MIm   
    que ya no puedo más oh si me pasará
       LA                             RE 
    pero ya no lo se yo ya no siento más.
    
    CORO:
                         SOL      RE 
    
  •               A             D
    Y preguntas por mí, que como me va,
                 A                                  D 
    a ver como tomé, tantas cosas que hablé de la soledad, 
                       F#m
    que si estoy bien o mal
                  B 
    que si puedo reír
                 E
    o si puedo llorar. 
    
                    A            D
    Y preguntas por mi, por curiosidad,
                 A                                           
    y quisiera decir que te extraño a rabiar, 
                     D
    que ya no puedo más, 
                F#m
    o se me pasará,
                  B 
    
  • e|-----3-------3------2--|-----3-------3------2--|Nota: este es la forma 
    B|-------3-------3-------|--------3------3-------|original y sencilla de 
    G|----------0------0-----|-----------0-----0-----|tocar, al final les tengo
    D|-----------------------|-----------------------|uno distinto con bajos 
    A|-----------------------|-----3-----------------|
    E|-----3-----------------|-----------------------|
    
    
    
    Verso:
    
    Y preguntas por mi                  
                    e|-----3-------3------2--|
                    B|-------3-------3-------|
                    G|----------0------0-----|
                    D|-----------------------|
                    A|-----------------------|
                    E|-----3-----------------|
    Que como me va
                 e|-----3-------3------2--|
    
  • E|---3---------3----------3---------2--      Se repite cuatro veces
    B|------3----------3---------3---------
    G|---------4----------4---------4------
    D|----------------------------------0--
    A|-------------------------------------
    E|---3---------------------------------
               
    
                   G      D
    Y preguntas por mí,
               G            D
    que como me va,
                  G
    a ver como tomé,
                       D           G      D
    tantas cosas que hablé de la soledad 
                         Em
    que si estoy bien o mal
                    A 
    que si puedo reír
    
  • Este rola esta chida y se usa el slide..
    
    (*SLIDE)
    
    G|----------------------------------------------------------------|
    D|----------------------------------------------------------------|
    A|--*3/10---------------------------------------------------------|
    E|----------------------------------------------------------------|
    
    G|----------------------------------------------------------------|
    D|----------------------------------------------------------------|
    A|--*3/5-3--*3/5---*3/5-3---*3/5----------------------------------|
    E|---------------3------------------------------------------------|
    
    
    
    ESTO SE TOKA CUANDO DICE ESTO:
    
    
    Y preguntas por mi
    Qué como me va
    Haber como tome 
    Tantas cosas que hable
    De la Soledad
    Que si estoy bien o mal	    
    Que si puedo reir	      
    O si puedo llorar...
    
    
    G|----------------------------------------------------------------|
    D|----------------------------------------------------------------|
    A|----3---3---0--*3/5--*3/10------
  • NIRS.
    ESTA ES UNA CANCIÓN QUE ME HAN PEDIDO MUCHO, ASÍ QUE AQUÍ ESTA, 
    DISCÚLPENME POR HABERME TARDADO PERO NO HABÍA TENIDO TIEMPO. OK. 
    DESPUÉS LES MANDO LA DE KILÓMETROS-SIN BANDERA. 
    TODOS LOS FA SON SOSTENIDOS ( FA # )
    
    MORÍ - TRANZAS
    
     Y  PREGUNTAS POR MÍ, QUE COMO ME   VAAA
    RE  RE RE  SI LA  SI, RE  SILA SOL FA # MI
    
    HABER COMO TOMÉ TANTAS COSAS QUE HABLÉ
    RE RE RESI LASI RE  RE RE SI    LA  SI 
    
    DE LA SOLEDAD,  QUE SI ESTOY BIEN O  MAL,
    RE SI LASOLSOL,  SI   SI  SI  LA SOL SOL,
    
    QUE SI PUEDO REÍR,  O  SI PUEDO  LLORAR. 
     SI SI SI LA SOLLA, MI MI MI FA# MI  RE. 
    
    SON LAS MISMAS NOTAS QUE EN EL PÁRRAFO ANTERIOR:
    Y  PREGUNTAS POR MI, POR   CURIOSIDAD.........
    RE RE RE  SI LA  SI, RE  SI LA SOL FA# MI.....
    
    CORO:
    
    POR QUE YA  NO ESTOY  AQUÍ,  MORÍ
    LA  SI  DO6  SI  DO6 SI RE6, SIRE6
    
    MORÍ EL DÍA EN QUE TE FUISTE ASÍ  DE  MÍ, NO  ESTOY,
    SI DO6     SI  DO6 SI DO6  SIDO6  MI6 RE6,MI6  RE6,
    
    CAMINO POR LAS CALLES SIN PENSAR
    SISISI SI  SI
  • +
    ¡Colabora con nosotros!
    Envíanos tu versión de esta canción

Letra de Morí
Antes de darte los acordes, debes tener en cuenta que:
La primera estrofa la tienes que digitar, y las otras
dos, son con ritmo: G1 y G2 son los del intro, nada más,
que no tocas los deslices ni la martillada...
Te explico como se toca el final de cada estrofa:

Y preguntas por mí, que como me va,
a ver como tomé, tantas cosas que hablé de la soledad,
que si estoy bien o mal
que si puedo reír
o si puedo llorar.
Y preguntas por mi, por curiosidad,
y quisiera decir que te extraño a rabiar,
que ya no puedo más,
o se me pasará,
pero ya no lo sé,
yo ya no siento más...
Porque ya no estoy aquí...
morí, morí el día en que te fuiste así
de mí, no estoy, camino por las calles sin pensar,
oigo sin escuchar, abrazo sin sentir soy el único muerto
que puede caminar...

porque ya no estoy aquí,
morí... morí el día en que te fuiste así
de mí, no estoy sólo existe este maldito amor,
que es mas grande que el sol, no tiene compasión,
no preguntes por mí... yo ya no estoy aquí.
Y preguntas por mí, de casualidad,
si salió a relucir, una conversación como otra normal,
si tenía la razón
o si yo estaba mal
no me puede importar...
Fin...
Para que quede como la original, has una armónica en
el traste 12, en las primeras tres cuerdas y ya...
Bueno eso es todo...
Espero les guste. ¡¡ARRIBA COLOMBIA!!




[Morí chords][Morí cifra]
© LaCuerda.net · aviso legal · privacidad · es · en · pt · contacto