Acordes de Guitarra » T »Tranzas » Por Siempre (Tab)

Por Siempre
Tranzas

Letras, Notas, Punteos, Tablaturas y Acordes de Guitarra (Tabs & Chords)

  • Letra y Acordes
    G       D            Em
    Se que juramos terminar
             D           C
    que lo nuestro ya no va
            Am           D7
    que acabamos por llorar
    
    
    G            D         Em
    Se que es dificil olvidar
               D            C
    lo que hablamos sin pensar
              Am        D7
    que nos pudo lastimar
    
    
    C                    Am
    se que el dia oscurecio
                           F
    se que el tiempo ya paso
    
  • Letra y Acordes
    F#       C#          D#m
    Se que juramos terminar
             A#m           B
    que lo nuestro ya no va
          G#7             C#
    que acabamos por llorar
    
    
    F#           C#        D#m 
    Se que es dificil olvidar
              A#m          B
    lo que hablamos sin pensar
            G#7        C#
    que nos pudo lastimar
    
    PRE-CORO
    
    Bsus4?                   
    se que el dia oscurecio
                         B  
    
  • Letra y Acordes
    E---------------------------------
    B----12--13--15---14--13----------
    G---------------------------------
    D---------------------------------
    A---------------------------------
    E---------------------------------
    
    
    E---------------------------------
    B--------------------9---12/15-15-
    G---14/11-11---9--10--------------
    D---------------------------------
    A---------------------------------
    E---------------------------------
    
    
    E---------------------------------
    B--17---15---13---13---15---17----
    G---------------------------------
    D---------------------------------
    
  • Tablatura
    e.-6-7--9-7-6-4-1-----1-0-3-6-6- 7h6h4------
    B.-7-9-11-9-7-6-2-----2-0-4-7-7-------------
    G.------------------------------------------
    D.------------------------------------------
    A.------------------------------------------
    E.------------------------------------------
    
    
    e.--7--9-11--9-7-13~s6---7--9-7-6-1s2-1--
    B.--9-11-12-11-9-14~s7---9-11-9-7-2s3-2--
    G.---------------------------------------
    D.---------------------------------------
    A.---------------------------------------
    E.---------------------------------------
    
    
    D#m      C#          B
    Se que juramos terminar
             F#           B
    que lo nuestro ya no va
    
  • +
    ¡Colabora con nosotros!
    Envíanos tu versión de esta canción

Letra de Por Siempre
Se que juramos terminar
que lo nuestro ya no va
que acabamos por llorar
Se que es dificil olvidar
lo que hablamos sin pensar
que nos pudo lastimar
se que el dia oscurecio
se que el tiempo ya paso
y otra vez me equivoque
Ven que no puedo mas
que te amo mas que a nadie
ven y dime que no es tarde
que lo intentas otra vez
que te quiero como a nada
te prometo con el alma
que por siempre estare
Se que es muy tarde para hablar
que intentamos continuar
que he falladao sin pensar
Se que si miras hacia atras
nuestro amor es de verdad
Se que el tiempo ya pa......
( se repite la misma estrofa)
ESTA ES UNA CANCION MUY BONITA Y CASI NADIA LA CONOCE,
PERO LA TIENEN QUE OIR.



© LaCuerda.net · Aviso Legal · Privacidad