Acordes de Guitarra » T »Tranzas » Dile (Tab)

Dile
Tranzas

Letras, Acordes y Tabs para Guitarra, Bajo y Ukulele

  • INTRO: F9
    F9 G9 Am-Am7 y luego (Am7 levantando el meñique)
    para darle el sonido que acompaña el bajo eléctrico
    
    F9       G9               Am-Am7 (Am7 con el meñique) F9
    Dile que yo voy a estar, bien,
             G9           Am-Am7 (Am7 con el meñique) F9
    Que no será primera vez
                 G9
    Dile que el tiempo borra,
     E7         Am    Am7   F9        G9
    Todo amor y todo amanecer, o tal vez
    
    F9          G9         Am-Am7 (Am7 con el meñique) F9
    Dile que me has visto mejor,
               G9             Am-Am7 (Am7 con el meñique) F9
    Que hablo muy poco de su amor
               G9
    Que pronto voy a estar
     E7             Am       Am7     F9        G9
    
  •      B   E   F# G#m  B7 Em7 D#7
    e --2---0---2---4---2---0---3--/
    B |--4---0---2---4---0---3---2--|
    G |--4---1---3---4---2---0---3--|
    D |--4---2---4---6---1---0---1--|
    A |--2---2---4---6---2---2---1--|
    E /--2---0---2---4---0---0---1--
    
    INTRO: B
    E - F# - G#m - F# - E - F# - G#m
    
    
    E         F#               G#m - F# - E
    Dile que yo voy a estar, bien,
             F#            G#m - F# - E
    Que no será primera vez
                 F#
    Dile que el tiempo borra,
     D#7        G#m    F#    E      F#
    Todo amor y todo amanecer, tal vez
    
  • F#     B      G#m              F#      E F# E
      e--7---7-6-4-2---4--------4-2-1--------------------------
      B--------------2--------2-------4-2----7-4--9-3----------
    
    E        F#               G#m F#
    Dile que yo voy a estar, bien,
    E          F#          G#m F#
      que no sera primera vez
    E              F#
      dile que el tiempo borra,
    B            G#m       F#       E
    todo amor y todo amanecer, tal vez
    
    E          F#              G#m F#
    Dile que me has visto mejor,
    E               F#          G#m F#
      que hablo muy poco de su amor
    E     F#             B
      que pronto voy a estar
                G#m               F#    E
    
  •       E   F#  G#m   B  E1
      e---0-----2---4---2---1------
      B---0-----2---4---4---0------
      G---1-----3---4---4---1------
      D---2-----4---6---4---2------
      A---2-----4---6---2---2------
      E---0-----2---4---2---0------
    
          C    E7  Am   G   F   Fm
      e---0-----0---0---3---1----1--
      B---1-----0---1---3---1----1--
      G---0-----1---2---0---3----1--
      D---2-----0---2---0---2----3--
      A---3-----2---0---2---2----3--
      E---3-----0---0---3---1----1--
    
    
    
    Intro
    Primero se rasguea solo el acorde E1  y luego va esto:
    
  • Esta cancion es re linda
    Intro
    E|-------|-0-----|-----|---|--------|
    A|--14/5-|-------|-----|---|--------|
    D|-------|---4-6-|-4-2-|-4-|-----6--|
    G|-------|-------|-----|---|-6-4----|
    
    Dile que yo
    E|--0-----|-----|---|---|-----|---|---|----|-------|--------|
    A|--------|-----|---|---|-----|---|---|----|-------|--------|x2
    D|----4-6-|-4-2-|-4-|-6-|-4-2-|-4-|-1-|-24-|-6-4-2-|-4h6-4--|
    G|--------|-----|---|---|-----|---|---|----|-------|--------|
    
    o talvez
    E|-------------|
    A|-------------|
    D|------6------|
    G|--6-4---4-6--|
    
    Dile que me muero
    E|------|---------|---------|-----22-|----------|
    A|--2-2-|-6-------|---2-----|---42---|-6-4------|
    D|------|---5-6-6-|-----2-2-|-21-----|-----6-4--|
    G|------|---------|-4-------|--------|----------|
    
    Dile que mi vida
    E|------|---------|---------|--------|
    A|--2-2-|-6-------|---2-----|--------|
    D|------|---8-6-6-|-----2-2-|-2-2-4--|
    G|------|---------|-4-------|--------|
    
    Dile mi nueva
    E|--0-----|-----|---|---|-----|---|-----|-------|-------|--------|
    A
  • +
    ¡Colabora con nosotros!
    Envíanos tu versión de esta canción

Letra de Dile
para darle el sonido que acompaña el bajo eléctrico
Dile que yo voy a estar, bien,
Que no será primera vez
Dile que el tiempo borra,
Todo amor y todo amanecer, o tal vez
Dile que me has visto mejor,
Que hablo muy poco de su amor
Que pronto voy a estar
Amando a alguien más como es normal o tal vez
Dile que me muero por besarla,
Que en las noches vuelvo a amarla
Aunque no esté junto a mí
Dile que mi vida es extrañarla,
Que si vuelve puedo amarla
Aunque no me quiera a mí
Dile mi nueva dirección
Dile que me llame por favor,
Dile que podemos hablar
De amistad como es normal o tal vez.....
Dile que me muero por besarla,
Que en las noches vuelvo a amarla
Aunque no esté junto a mí
Dile que mi vida es extrañarla,
Que si vuelve puedo amarla
Aunque no me quiera a mí
Dile que yo voy a estar bien
O dile tal vez...
Dile que me muero por besarla,
Que en las noches vuelvo a amarla
Aunque no esté junto a mí oh oh
Dile que mi vida es extrañarla,
Que si vuelve puedo amarla
Aunque no esté junto a mí
Oh, oh, dile
Oh, oh, dile
Oh, Oh, Oh...
NO SÉ SI ASI SE LLAMEN LOS ACORDES QUE UTILIZO EN ESTA CANCION,
PERO AHÍ LES VÁ LOS GRAFICOS
PARAQUE NO SE ENREDEN BUSCANDO EN OTRA PARTE
1 2 3 4 5
1 2 3 4 5
3 4 5 6 7
1 2 3 4 5
1 2 3 4 5
1 2 3 4 5
Esta canción se la dedico a Johanna Ojeda Morales,
El tiempo es demasiado lento para aquellos que esperan...
demasiado rápido para aquellos que temen....
demasiado largo para aquellos que sufren....
demasiado corto para aquellos que celebran...
pero para aquellos que aman, el tiempo es eterno TE AMO J.O.M
Agradezco a Carlos Holmes Medina por la colaboracion en esta cancion,
y a Johanna Ojeda Morales por ser la fuente de inspiracion.
Alguna sugerencia o duda, me la hacen saber a mi msn
dobby2501@hotmail.com




[Dile chords][Dile cifra]
© LaCuerda.net · aviso legal · privacidad · es · en · pt · contacto