Acordes de Guitarra » T »Toque de Queda » No sueltes mi mano (Tab)

No sueltes mi mano
Toque de Queda

Letras, Acordes y Tabs para Guitarra, Bajo y Ukulele

  • A E F#m D
    A E F#m F#m7 D E
    
    
    A5         A
    Nunca imagine
         A5       A
    que llegaría este dia
    D/F#        Bm
    yo nunca pensé 
         E
    que nuestro amor terminaría
    
    
    A5     A
    Traaaaaté
    A5               A
    por todos los medios
    D/F#           Bm
    mas de una ocasión
    
  •                  A                 Em                  F#m             D 
    E|--*---------7--10--9--7----------12--12--12--14--12--9--9--7---------------|
    B|--*-----10--------------10-----------------------------------10--10--10----|
    G|--*---9--------------------9--9--------------------------------------------|
    D|--*------------------------------------------------------------------------|
    A|--*------------------------------------------------------------------------|
    E|--*------------------------------------------------------------------------|
    
    
    
                            A                 Em                         F#m
    E|--*----7-----------7--12--12--10--9-----12--12--14--12--10--9--10--9--9----|
    B|--*-10---10-----10---------------------------------------------------------|
    G|--*----------9----------------------9--------------------------------------|
    D|--*------------------------------------------------------------------------|
    A|--*------------------------------------------------------------------------|
    E|--*------------------------------------------------------------------------|
    
    
    
    
  • +
    ¡Colabora con nosotros!
    Envíanos tu versión de esta canción

Letra de No sueltes mi mano
Nunca imagine
que llegaría este dia
yo nunca pensé
que nuestro amor terminaría
Traaaaaté
por todos los medios
mas de una ocasión
hacer algo a cualquier precio
Pero ahora me dices
lo nuestro a terminado
que nuestra relación
a quedado a un lado
Y sin embargo te pido
que no sueltes mi mano
que nada de lo nuestro
ha sido en vano
Abreme un lugar
en tu corazón
para continuar
como cuando todo empezó
Debes entender
lo mucho que significa
que estes aqui
junto a mi
Alrededor de ti
he creado un mundo
lleno de ilusiones
que deseo cumplir
Pero ahora me dices
que nuestra unión no tiene sentido
si ya no tienes un motio por el cual
estar conmigo
Y sin embargo te pido
que no sueltes mi mano
que nada de lo nuestro
ha sido en vano
Abreme un lugar
en tu corazón
para continuar
como cuando todo empezó
INTERLUDIO

Yo se que algunas veces
me he equivocado
por hacer las cosas
sin haberlas pensado
Yo se que algunas veces
me he equivocado
por hacer las cosas
sin haberlas pensado

No
No sueltes mi mano no no
Nooo
No sueltes mi mano
por favor
ACORDES

Video de No sueltes mi mano
[]




[No sueltes mi mano chords][No sueltes mi mano cifra]
© LaCuerda.net · aviso legal · privacidad · es · en · pt · contacto