Acordes de Guitarra » T »Teen Angels » De Cabeza (Tab)

De Cabeza
Teen Angels

Letras, Acordes y Tabs para Guitarra, Bajo y Ukulele

  • G                    C
    De cabeza por tu amor
    Em                     D
    y con mi mundo al reves
               Em               B
    tengo la tierra en mis manos
    Em                         Am
    y llevo el cielo en los pies
    D                           G
    y llevo el cielo en los pies
    
    G                   C
    De cabeza por tu amor
    Em                   D
    y con los ojos sin ver
             Em               B
    yo te busco en las estrellas
    Em                  Am
    para volverte a tener
    D                   G
    
  • E ---------------------------------7-----------------------
    B ---------8--------------------8-----8*10--8----12*13--12-
    G -------7----9~~----7~~----7*9----------------------------
    D --7*9----------------------------------------------------
    A ---------------------------------------------------------
    E ---------------------------------------------------------
    
    E ---------------------------------------------------10--
    B -10--8-10*12----15~~--10/12--10--8----------10*12------
    G -------------------------------------------------------
    D -------------------------------------------------------
    A -------------------------------------------------------
    E -------------------------------------------------------
    
    E -------------------------------------------------------
    b -10*12-10----------------------------------------------
    G -------------------------------------------------------
    D -------------------------------------------------------
    A -------------------------------------------------------
    E -------------------------------------------------------
    
  • Verso:
    
    e----------------------------------------------------
    B----------------------------------------------------
    G----------------------------------------------------
    D--3/5----5---5--5/7--5--------5--7--7/9-7-----------
    A-------7----5-------------6/7--------------10-9-7/5-
    E----------------------------------------------------
       De cabeza por tu amor   y con mi  mundo  al reves
    
    e----------------------------------------------------
    B----------------------------------------------------
    G----------------------------------------------------
    D--3/5-7--8/9--10-9-10-9-10/9------9-9-9-9---7-7--5/2
    A----------------------------------------------------
    E----------------------------------------------------
      Tengo la tierra en mis manos   Y llevo el cielo en los pies
    
    e------------------------------
    B------------------------------
    G------------------------------
    D----5---5----7-9--7/5---------
    A--7---7-----------------------
    E------------------------------
       Y llevo el cielo en los pies
    
    
    e
  • +
    ¡Colabora con nosotros!
    Envíanos tu versión de esta canción

Letra de De Cabeza
De cabeza por tu amor
y con mi mundo al reves
tengo la tierra en mis manos
y llevo el cielo en los pies
y llevo el cielo en los pies
De cabeza por tu amor
y con los ojos sin ver
yo te busco en las estrellas
para volverte a tener
para volverte a tener
Ese angel que partio
me dio un amor sin final
y dejo abierta una herida
que ya no podre curar
que ya no podre curar
Y en cada paso te encuentro
en cada esquina de mi alma te pierdo
y en cada estrofa de esta cancion
puse la letra que el cielo me dio
y en cada paso te encuentro
y en cada esquina de mi alma te pierdo
y en cada estrofa de esta cancion
puse la letra que un dia me dio
tu corazon




[De Cabeza chords][De Cabeza cifra]
© LaCuerda.net · aviso legal · privacidad · es · en · pt · contacto