Acordes de Guitarra » T »Teen Angels » Un Lugar (Tab)

Un Lugar
Teen Angels

Letras, Acordes y Tabs para Guitarra, Bajo y Ukulele

  • Intro: B Bb C#m F#sus4 F#  Bis
    
    
    B        Ebm           C#m7
    Hay un lugar al que me voy
                   F#sus4 F#
    cuando estoy triste
    
    B        Bb          C#m
    es un lugar dentro de mi
               F#sus4 F#
    que nunca viste
    
    E           D#7
    Me lo invente
             G#m G#m/F#    C#
    para sentir que me quisiste
    C#m                   F#sus4 F#
    Es un lugar al que me voy
                    B   F#
    
  • SI        RE#m         MI                FA# 
    Hay un lugar al que me voy cuando estoy triste
    SI     RE#m           MI           FA# 
    es un lugar dentro de mi que nunca viste
    MI       RE#M7      SOL#m         DO# 
    Me lo invente para sentir que me quisiste
    DO#m                  FA#                SI       FA# 
    Es un lugar al que me voy cuando estoy triste
    
         SI      SOL#m     DO#m   FA# 
    Y si te vas        tambien me voy
         SI      SOL#m    DO#m   FA# 
    Y si no estas      tampoco estoy
            FA#m        SI 
    Y nada importa nada sirve
         MI        DO#m
    nada vale nada queda
    FA#           SI 
           Sin tu amor
    
    
  • Intro: A  G# Bm  Esus4  E   Bis
    
    
    A        C#m           Bm7
    Hay un lugar al que me voy
                   Esus4  E
    cuando estoy triste
    
    A        G#          Bm
    es un lugar dentro de mi
               Esus4  E
    que nunca viste
    
    D           C#7
    Me lo invente
             F#m F#m/E     B
    para sentir que me quisiste
    Bm                    Esus4  E
    Es un lugar al que me voy
                    A   E
    
  • INTRO:
    e|----------------------------------------------------------|
    B|-2s4-2-0-------0-2s5-7-9-4-2--7-4-7-7s11-14-12-7--3s5-4-2-|
    G|---------3-1-3--------------------------------------------|
    D|----------------------------------------------------------|
    A|----------------------------------------------------------|
    E|----------------------------------------------------------|
    
    CANCION:
    e|-2-2-2-2-4-2-0-0---0-----------|
    B|---------------------4-2-0-0s2-|
    G|-------------------------------|
    D|-------------------------------|
    A|-------------------------------|
    E|-------------------------------|
    
    e|----------------------------------|
    B|-2s4-2-0--------0-2s5-5-4-2-0-0s2-|
    G|----------3-1-3-------------------|
    D|----------------------------------|
    A|----------------------------------|
    E|----------------------------------|
    
    e|---------------------------------|
    B|-9-7-5-4--4-8-11-12-11-9-7-4-0---|
    G|---------------------------------|
    D|---------------------------------|
    A|---------------------
  • +
    ¡Colabora con nosotros!
    Envíanos tu versión de esta canción

Letra de Un Lugar
Hay un lugar al que me voy cuando estoy triste
es un lugar dentro de mi que nunca viste
Me lo invente para sentir que me quisiste
Es un lugar al que me voy cuando estoy triste
Y si te vas tambien me voy
Y si no estas tampoco estoy
Y nada importa nada sirve
nada vale nada queda
Sin tu amor
Un laberinto sin final donde me pierdo
y corro y corro sin parar y no te encuentro
Y aunque de vos quiera escapar siempre me acuerdo
que existe en mi algun lugar donde te tengo.
Y si te vas tambien me voy
Y si no estas tampoco estoy
Y nada importa nada sirve
nada vale nada queda
Sin tu amor




[Un Lugar chords][Un Lugar cifra]
© LaCuerda.net · aviso legal · privacidad · es · en · pt · contacto