Tablatura para Guitarra de Teen Angels: De Cabeza
Conexión · Inscripción
Letras y Acordes
Pantalla Completa
Imprimir
Versión Texto
Añadir Favorito
Otras Versiones

Mostrar Diagramas
Desfile Automático
Manipular Acordes
Formato del Texto


De Cabeza(TAB)

Teen Angels

calidad:
tngl0122
AUTOR: Teen Angels  corregir
ALBUM: Casi Angles vol 2 (2008)
Enviado por eduardo, basado en gabi
Intr.


E ---------------------------------7-----------------------
B ---------8--------------------8-----8*10--8----12*13--12-
G -------7----9~~----7~~----7*9----------------------------
D --7*9----------------------------------------------------
A ---------------------------------------------------------
E ---------------------------------------------------------

E ---------------------------------------------------10--
B -10--8-10*12----15~~--10/12--10--8----------10*12------
G -------------------------------------------------------
D -------------------------------------------------------
A -------------------------------------------------------
E -------------------------------------------------------

E -------------------------------------------------------
b -10*12-10----------------------------------------------
G -------------------------------------------------------
D -------------------------------------------------------
A -------------------------------------------------------
E -------------------------------------------------------




G C De cabeza por tu amor
Em D y con mi mundo al reves
Em B tengo la tierra en mis manos
Em Am y llevo el cielo en los pies
D G y llevo el cielo en los pies
G C De cabeza por tu amor
Em D y con los ojos sin ver
Em B yo te busco en las estrellas
Em Am para volverte a tener
D G para volverte a tener
G C Ese angel que partio
Em D me dio un amor sin final
Em B y dejo abierta una herida
Em Am que ya no podre curar
D G que ya no podre curar
G Em Y en cada paso te encuentro
Am D en cada esquina de mi alma te pierdo
C B Em y en cada estrofa de esta cancion
Am D puse la letra que el cielo me dio
G Em y en cada paso te encuentro
Am D y en cada esquina de mi alma te pierdo
C B Em y en cada estrofa de esta cancion
Am D puse la letra que un dia me dio
G tu corazon * : ligar ~ : vibrato Espero que les sirva Acepto críticas buenas y malas Saludos a todos los seguidores De teen angels Eduardo basin , gualeguaychú
Este fichero es trabajo propio de su transcriptor y representa su interpretación personal de la canción. El material contenido en esta página es
para exclusivo uso privado, por lo que se prohibe su reproducción o retransmisión, así como su uso para fines comerciales.

© LaCuerda.net · Aviso Legal · Privacidad