Acordes de Guitarra » T »Los Tecolines » Toda Una Vida (Tab)

Toda Una Vida
Los Tecolines

Letras, Acordes y Tabs para Guitarra, Bajo y Ukulele

  • Este es el requinto de la cancion Toda una vida 
    de los Tecolines.
    
    
    
    __      
      \                                       
       1|-----5-7-8-7-5-7-8-8-------------------
     ) 2|---------------------6-----------------
       3|---------------------------------------
       4|---------------------------------------
     ) 5|---------------------------------------
       6|---------------------------------------
    __/
    
    
    __      
      \                                       
       1|------5-7-5---5-7-7--------------------
     ) 2|----8-------8-------5------------------
       3|---------------------------------------
       4|---------------------------------------
     ) 5|---------------------------------------
       6|---------------------------------------
    __/
    
    
    
    __      
      \                                       
       1|-----------------5-5------8----7--5--4--0-------
     ) 2|---5-6-8-6-5-6-8----------10---8--6--3----------
       3|---------------------7---------------4----------
       4|---------------------
  • +
    ¡Colabora con nosotros!
    Envíanos tu versión de esta canción






[Toda Una Vida chords][Toda Una Vida cifra]
© LaCuerda.net · aviso legal · privacidad · es · en · pt · contacto
DINAMICO