Acordes de Guitarra » T »Los Tecolines » Bésos de Plata (Tab)

Bésos de Plata
Los Tecolines

Letras, Acordes y Tabs para Guitarra, Bajo y Ukulele

  •          Dm          D7   Gm             C7
    Hasta tu reja vengo amada mía,  por tu cariño
    
                 F
    que yo ansío tanto,
    
               Dm        Bb     A7
    escucha el eco de mi triste canto,  es el emblema
    
                  Dm
    de un cálido amor.
    
                         D7     Gm              C7
    Bella mujer de angelical ternura,  tus ojos tienen
    
                 F
    mil encantos presos...
    
            Gm              Dm                 A7
    en el sopor de aquellos besos, quisiera mi alma
    
  •          REm        RE7   SOLm
    Hasta tu reja vengo amada mía
             DO                 FA
    por tu cariño que yo ansío tanto
              REm        SIb    LA7
    escucha el eco de mi triste canto
                               REm
    es el emblema de un cálido amor
    
            REm         RE7    SOLm
    Bella mujer de angelical ternura
              DO                  FA
    tus ojos tienen mil encantos presos
           SOLm            REm
    En el sopor de aquellos besos
               LA7           REm
    quisiera mi alma morir mejor
       RE7       SOLm
    no oís como llora
                REm
    
  •      B---8--8---7---8--8---4---5---3---1------
         G----------------------------------------
         D----------------------------------------          
         A----------------------------------------                          
         E----------------------------------------
    
     
         e---4--1---------------------------------
         B----------3--1--------------------------
         G-----------------2--1-------------------
         D---------------------------3--0---------          
         A----------------------------------2--0--
         E----------------------------------------
                                 
                                 R    A   R    A
         e-----------------------0----0--0-----0--
         B-----------------------1-------1--------
         G-----------------------2-------2--------
         D-----------------------2-------2--------  
         A-------4-h-5---3---2--------------------       
    
  • +
    ¡Colabora con nosotros!
    Envíanos tu versión de esta canción

Letra de Bésos de Plata
Hasta tu reja vengo amada mía
por tu cariño que yo ansío tanto
escucha el eco de mi triste canto
es el emblema de un cálido amor
Bella mujer de angelical ternura
tus ojos tienen mil encantos presos
En el sopor de aquellos besos
quisiera mi alma morir mejor
no oís como llora
mi triste guitarra
Qué un dolor amargo
es el que te imploro
hoy al deshojar esa margarita
la ultima hojita me dijo que no
Al verla vidita
mi amor aumento
Soy tu poeta soñador que siempre
hace rondelas para tu hermosura
mas esta noche no se si es locura
la que me indujo llegar hasta aquí
Busco ese sol de tus miradas ondas
no se si abrigas en tu pecho nieve
No hagáis que sea mi vida breve
yo te idolatro con frenesí
no abrís mi sultana
sin duda ninguna
Que un rayo de luna
entra a tu ventana
para acariciarte en mi serenata
con besos de plata tu boca sensual
Tus ojos divinos
mujer inmortal
Esta canción está armonizda en Rem, bajo los efectos
del Vals, muy tranquilita, romantica, tocandose con amor
y sentimiento. Perfecta para una serenata a la luz de




[Bésos de Plata chords][Bésos de Plata cifra]
© LaCuerda.net · aviso legal · privacidad · es · en · pt · contacto
DINAMICO