Acordes de Guitarra » T »Tamara Castro » La flor amarilla (Tab)

La flor amarilla
Tamara Castro

  • Tablatura
    E|-0--------------------------------------12-11-14-12-11--------
    B|-0-----8/7-7-8-------12/10--10-12-----12----------------------
    G|-0--/9----9-------/12-----12----------------------------------
    D|-2------------------------------------------------------------
    A|-2------------------------------------------------------------
    E|-0------------------------------------------------------------
    
    E|-------------------------------2---0--------------------------
    B|--10-8-7-8-10-----7-5-4-5------4---0--------------------------
    G|-8---------------4-------4-----4---0--------------------------
    D|-------------------------------4---2--------------------------
    A|-------------------------------2---2--------------------------
    E|-------------------------------2---0--------------------------
    
    E|-------------------------------------12-11-14-12-11-7---------
    B|----8/7-7-8-------12/10--10-12-----12------------12-7-7-------
    G|-/9----9-------/12-----12------------------------11-8-8-------
    D|------------------------------------------------------9-------
    A|--------------------------------------------------------------
    E|--------------------------------------------------------------
    
  • +
    ¡Colabora con nosotros!
    Envíanos tu versión de esta canción

Letra de La flor amarilla
Primer tema que intento sacar y subo,
próximamente voy a tratar de completarlo con los acordes y demás adornos



© LaCuerda.net · aviso legal · privacidad · contacto