Acordes de Guitarra » T »Tamara Castro » La Desamorada (Tab)

La Desamorada
Tamara Castro

Letras, Notas, Punteos, Tablaturas y Acordes de Guitarra (Tabs & Chords)

  • Letra y Acordes
    e --------0---0---0---------0---0---0-----------1---0--
      ------3-----------------3-------------------3--------
      ----2-----2---2-------3-----3---3---------2-----2----
      --0-----------------0--------------------------------
      ---------------------------------------0-------------
    E -----------------------------------------------------
    
    La parte cantada empieza con el mismo punteado, pero en el
    primer Solm pueden hacer esto:
    
    e ---------0---0---------------------------
      ------3----------------------------------
      ----3------3-----------------------------
    -----------------------------------------
    -----------------------------------------
    E --3--------------------------------------
    
                    REm                SOLm
    A) La noche es larga, tu ausencia duele
                DO       FA       REM/FA# 
    
  • +
    ¡Colabora con nosotros!
    Envíanos tu versión de esta canción

Letra de La Desamorada
La parte cantada empieza con el mismo punteado, pero en el
primer Solm pueden hacer esto:
A) La noche es larga, tu ausencia duele
Pero una duda me duele más
no sé si ha sido la arena de los años
o un nuevo desengaño que se llevó tu amor
no sé si ha sido la arena de los años
o un nuevo desengaño que se llevó tu amor
A) O fue una herida que te ha dejado
marcado a fuego el desamor
hay una pena al fondo de tus ojos
cual si fueran despojos de algún viejo dolor
hay una pena al fondo de tus ojos
cual si fueran despojos de algún viejo dolor
B) Pero el día no perdona
Y de nuevo amaneció
Ilumi nando tu ausencia en mi costado
Un sueño derrumbado y el fin de una ilusión
Iluminando una pena en mi costado
Tu ausencia me ha dejado quebrado el corazón.
A) A veces creo no haberte hablado
Desde mi esencia tal cual yo soy
Quizás el miedo a historias repetidas
O a golpes de la vida que el tiempo desnudó
Quizás el miedo a historias repetidas
O a golpes de la vida que el tiempo desnudó.
Ay! si pudiera cambiarlo todo
hoy te diría: "Mi corazón,
esta es tu casa y siempre están abiertas
de par en par las puertas en nombre del amor.
Esta es tu casa y siempre están abiertas
de par en par las puertas, en nombre del amor".
B) Pero el día no perdona...

Videos de La Desamorada
[ver más videos]

[ver todas las canciones]


© LaCuerda.net · Aviso Legal · Privacidad