Acordes de Guitarra » S »Sui Generis » Lunes Otra Vez (Tab)

Lunes Otra Vez
Sui Generis

Letras, Acordes y Tabs para Guitarra, Bajo y Ukulele

  • G    F#      F  Em
    Lunes otra vez
    
    C     D      Em   D7
    Sobre la ciudad
    
    G      C      G     G
    La gente que ves
    
    C       D7    G
    Vive en soledad
    
    G     Am    Em
    Sobre el bosque gris
    
    C           A
    Veo morir al sol
    
         G      F#         F     D   G C G C
    Que mañana sobre la avenida nacerá
    
  • SOL  RE   MIm  DO   RE   SOL
    Lunes otra vez, sobare la ciudad
    SOL  RE   MIm  DO   RE   SOL
    La gente que ves, vive en soledad
    SOL  RE   MIm       DO         LAm
    Sobre el bosque gris, veo morir al Sol
    SOL           RE       FA  DO-SOL
    Que mañana sobre la vereda nacerá.
    
    SOL  RE   MIm  DO   RE   SOL
    Calles sin color, vestidas de gris
    SOL  RE   MIm  DO   RE   SOL
    Sobre mi ventana, veo el verde tapiz
    SOL  RE  MIm     DO       LAm
    De una plaza que mañana morirá
    SOL          RE         FA       DO-SOL
    Y muerto el verde solo el hierro crecerá.
    
    DO
    Viejas en la esquina mendigan su pan
    
  •         |G   |G Eb D|
    I:
    |G   Gb|  F  E|   Am  D |  Bm  D|
    Lunes otra vez  sobre la ciudad
    |G  C  |  G      |C        D  |G    |
    la gente que ves, vive en soledad
    G  Am |   Em         |C           |A   |
    sobre el bosque gris veo morir al sol
          | G    Gb |       F    D7 |G  C |G  C|
    que mañana sobre la avenida nacerá
    
    RIFF:  |G  D| F  D7| G  C| G  C|
    
    I:
    Calles sin color vestidas de gris
    desde mi ventana veo el verde tapiz
    de una plaza que mañana morirá
    y muerto el verde solo hierro crecerá
    
    RIFF:
    
  • (En el solo hay dos guitarras tocando a la vez, yo tabule la mas grave
    que es la que mas se escucha)
    
    
    Intro:
    -||-/3-3-3-3-3-3-3-3-3-3-3-3-3-------||
    -||-/3-3-3-3-3-3-3-3-3-3-3-3-3--8-7--||
    -||-----------------------------8-7--||
    -||-----------------------------8-7--||
    -||-----------------------------6-5--||
    -||----------------------------------||
    
    
    Primer corte:
    -||----------10-12-10-------------------|-
    -||----10-12----------10-8-10-8----8-8--|-
    -||-12---------------------------/9-----|-
    -||-------------------------------------|-
    -||-------------------------------------|-
    -||-------------------------------------|-
    
    Solo:
    |---------------------------------------------------------
    |---------------------------------------------------------
    |-----0-0-----0-0-----0-0-0-0-----0--0-----0-2b-0---0-----
    |-0h2-----0h2-----0h2---------0h2------0h2--------2---2-0-
    |---------------------------------------------------------
    |---------------------------------------------------------
    
    --------------
  • Lunes otra vez  
    (sui generis)
    
    Yo la arme tocando con una armónica en Do, 
    no se como sonara con otro tono, prueben.  
    (4) = aspirado
    4   =exhalando
    
      6  6    (6) 6   5 4
    Lunes   otra   vez
      4  4      (4)      5   5     (4)
    Sobre     la     ciudad,
     6      6 (6)     6     5 4
    La    gente   que   ves
     4  4    (4)       5   5    (4)
    Vive    en    soledad.
    
       6  (5)          5  (4)     4
    Sobre  el    bosque   gris 
       4     4 (4)        5       5    (4)
    Veo   morir      al     sol
        4      (4) 5 6      (6) 6    5    4 (5) (4)    4 (4) 4
    Que    mañana    sobre    la    avenida     nacerá
  • +
    ¡Colabora con nosotros!
    Envíanos tu versión de esta canción

Letra de Lunes Otra Vez
Lunes otra vez
Sobre la ciudad
La gente que ves
Vive en soledad
Sobre el bosque gris
Veo morir al sol
Que mañana sobre la avenida nacerá
calles sin color
Vestidas de gris
Desde mi ventana
Veo el verde tapiz
De una plaza que
Mañana morirá
Y muerto el verde solo hierro crecerá
Viejas en la esquina mendigan su pan
En las oficinas muerte en sociedad
Todos viejos hoy, sin saber mirar
La espantosa risa de la pálida ciudad
Lunes otra vez
Sobre la ciudad
La gente que ves
Vive en soledad
siempre sera igual
nunca cambiara
lunes es el dia triste y gris de soledad




[Lunes Otra Vez chords][Lunes Otra Vez cifra]
© LaCuerda.net · aviso legal · privacidad · es · en · pt · contacto