Acordes de Guitarra » S »Sui Generis » Quizás Porque (Tab)

Quizás Porque
Sui Generis

Letras, Acordes y Tabs para Guitarra, Bajo y Ukulele

  •             D
    QUIZAS PORQUE
    
    NO SOY UN BUEN POETA
                Dmaj7
    PUEDO PEDIRTE QUE TE QUEDES QUIETA
              Bm F#m              C C/B A7sus4  A7
    HASTA QUE YO TERMINE ESTAS PALA- Am BRAS
    
                D
    QUIZAS PORQUE
    
    NO SOY UN GRAN ARTISTA
              Dmaj7
    PUEDO DECIR "TU PINTURA ESTA LISTA"
           Bm F#m           C C/B A7sus4       A7
    Y DARTE ORGULLOSO ESTE MAMARRACHO
    
       G             A7          Dsus4
    QUIZAS PORQUE NO SOY DE LA NOBLEZA
    
  •            D
      Quizas porque no soy un buen poeta
               D7 
      puedo pedirte que te quedes quieta
                Bm   F#m          C   A7
      hasta que yo termine estas pala-bras
    
               D
      Quizas porque no soy un gran artista
              D7 
      puedo decir: "tu pintura esta  lista"
              Bm   F#m       C     A7
      y darte orgulloso este mamarracho
    
       G                A           D
      Quizas porque no soy de la nobleza
                F#                   Bm
      puedo nombrarte mi reina y princesa
       Bm/A           E7                     A7
            y darte corona de papel y cigarrillo
    
  • Dmaj7  C/B  A7sus4  A7  Dsus4 Bm/A  E7
    --3-----x------0----0----3------2---0--
    --3-----1------3----2----3------3---3--
    --3-----0------0----0----2------4---1--
    --0-----2------2----2----0------4---0--               --x-----2------0----0----x------0---2--
    --x-----x------x----x----x------x---0--
    
    
    Empieza con unos arpegios rápidos de D que se escuchan bien bajo y despues sigue con esto:
    
    -2--3--2--8/10-8-------------------------------------- 
    -3--3--3---------10-8---8h10b8------------------------
    -2--2--2--------------9--------9-7---7h9b7-----------7b
    -0---------------------------------9-------9-7---7h9---
    -----------------------------------------------9-------
    -------------------------------------------------------
    
    
    --8/10-8------------------------------- 
    ---------10-8---8h10b8-----------------
    
  •   E  -2--3--2--8s10--8--!-------------------------------------------! 
      B  -3--3--3-----------!--10--8---8--10--8-------------------------!
      G  -2--2--2-----------!--------9----------9-7---7-9-7-----------7-!
      D  -0-----------------!-----------------------9-------9-7---7-9---!
      A  -------------------!-----------------------------------9-------!
      E  -------------------!-------------------------------------------!
    
           INTRO         SEGUNDA GUITARRA :
       
    
      E  -2--3------2--------3------2---------2---3--2--
      B  -3----3------3--------3------2-------3---3--3--
      G  -2------2------2--------3------2-----2---2--2--
      D  -0-----------------------------------0---------
      A  -----------------------------------------------
      E  -----------------------------------------------
    
    
    
    
    
  • +
    ¡Colabora con nosotros!
    Envíanos tu versión de esta canción

Letra de Quizás Porque
QUIZAS PORQUE
NO SOY UN BUEN POETA
PUEDO PEDIRTE QUE TE QUEDES QUIETA
HASTA QUE YO TERMINE ESTAS PALA- Am BRAS
QUIZAS PORQUE
NO SOY UN GRAN ARTISTA
PUEDO DECIR "TU PINTURA ESTA LISTA"
Y DARTE ORGULLOSO ESTE MAMARRACHO
QUIZAS PORQUE NO SOY DE LA NOBLEZA
PUEDO NOMBRARTE MI REINA Y PRINCESA
Y DARTE CORONAS DE PAPEL DE CIGARRILLO
QUIZAS PORQUE SOY UN MAL NEGOCIANTE
NO PIDO NADA A CAMBIO DE DARTE
LO POCO QUE TENGO: MI VIDA Y MIS SUEÑOS
QUIZAS PORQUE
NO SOY UN BUEN SOLDADO
DEJO QUE ATAQUES DE FRENTE Y COSTADO
CUANDO DISCUTIMOS DE NUESTROS PROYECTOS
QUIZAS PORQUE NO SOY NADA DE Em Em SO
ES QUE HOY ESTAS AQUI EN MI LECHO




[Quizás Porque chords][Quizás Porque cifra]
© LaCuerda.net · aviso legal · privacidad · es · en · pt · contacto