Acordes de Guitarra » S »Sui Generis » Confesiones de Invierno (Tab)

Confesiones de Invierno
Sui Generis

Letras, Acordes y Tabs para Guitarra, Bajo y Ukulele

  • (RE)                    SOL  RE
    Me echo de su cuarto gritándome
    DO         LA7   RE
    no tienes profesión
    (RE)                      SOL   RE
    tuve que enfrentarme a mi condición
    DO       LA7        RE
    en invierno  no hay sol
             SOL                    RE
    y aunque digan que va a ser muy fácil
            DO         LA7 RE
    es muy duro poder mejorar
          SOL                 RE
    hace frió y me falta un abrigo
         DO             LA7    RE
    y me pesa el hambre de esperar
    
    
    (RE)                 SOL   RE
    Quien me dará algo para fumar
    
  • RE                    SOL  RE
    Me echo de su cuarto gritándome
    DO         LA7   RE
    no tienes profesión
    RE                      SOL   RE
    tuve que enfrentarme a mi condición
    DO       LA7        RE
    en invierno  no hay sol
             SOL                    RE
    y aunque digan que va a ser muy fácil
            DO         LA7 RE
    es muy duro poder mejorar
          SOL                 RE
    hace frió y me falta un abrigo
         DO                     LA7
    y me pesa el hambre de esperar
    
    
    RE                 SOL   RE
    Quien me dará algo para fumar
    
  • RE                      SOL  RE
    Me echo de su cuarto gritándome
    DO        G/B LA7 RE
    no tienes pro-fe-sión.-
    Tuve que enfrentarme a mi condición
    en invierno  no hay sol.-
    
    
             G/B            G/Bb    LA7
    Y aunque digan que va a ser muy fácil
            SOL       LA7 RE
    es muy duro poder mejorar
    hace frió y me falta un abrigo
         SOL         Em   A7
    y me pesa el hambre de esperar.
    
    
    Quien me dará algo para fumar
    o casa en que vivir
    se que entre las calles debes de estar
    
  • E|------2h3p2---------2h3p2---------------------|
    B|----3------3------3------3--------------------|
    G|--2--2------0h2--2-2-------2--------0------0--|
    D|-0--------------0-----------------0------0----|
    A|-------------------------------0h3---0h2------|
    E|----------------------------------------------|
    
    E|------2h3p2-----------2h3p2-------------------|
    B|----3------3-------3--------3-----------------|
    G|--2--2-------2---2---2-------2--------0------0|
    D|-0--------------0-----------------0------0----|
    A|-------------------------------0h3---0h2------|
    E|----------------------------------------------|
    
    
    E|-----2h3p2----------2h3p2-2--| FIN
    B|---3------3-------3----------|
    G|--2-2------0h2---2-2---------|  DE
    D|-0--------------0------------|
    A|-----------------------------| INTRO
    
  •  E|-----------2h3p2--------------2h3p2------------------|
     B|-----3----------3---------3--------3---------------3-|
     G|---2---2----------0h2---2---2--------2-----0---0---2-|
     D|-0--------------------0-------------------0---0----0-|
     A|-----------------------------------------0h3-0h2-----|
     E|-----------------------------------------------------|x
    
    
       Riff 2
     E|-2------2h3p2--------------2h3p2------------------|
     B|---3---------3--------3----------2--------------3-|
     G|-----2---------2----2---2----------3---0---0----2-|
     D|-----------------0--------------------0---0-----0-|
     A|-------------------------------------0h3-0h2------|
     E|--------------------------------------------------|x
    
    
    
       Riff 3
     E|-------2h3p2--------------2h3-2h3-2-----|
    
  • CONFECIONES DE INVIERNO
    
     
    6 6 6(6)6 4 4(6)6 6 - (4)(4)(4)(4)4(3)4
    
    (4)5(5)5(5)5(5)(5)5 4 - 4 4 (3)(3)(3)(3)4 4 (4)
    
    ultima oracion de la ultima estrofa 4 4 (4)(4)(4)(4)4(3)4
    
    arreglo final 5 4 4 5 4,  6 6
  • +
    ¡Colabora con nosotros!
    Envíanos tu versión de esta canción
  • Tutorial
    HD
    Como tocar Confesiones de invierno - Sui Generis
    8:09
  • Tutorial
    HD
    Como tocar Confesiones de invierno - Sui Generis
    1:10

Letra de Confesiones de Invierno
Me echo de su cuarto gritándome
no tienes profesión
tuve que enfrentarme a mi condición
en invierno no hay sol
y aunque digan que va a ser muy fácil
es muy duro poder mejorar
hace frió y me falta un abrigo
y me pesa el hambre de esperar
Quien me dará algo para fumar
o casa en que vivir
se que entre las calles debes de estar
pero no se partir
y la radio nos confunde a todos
sin dinero la pasare mal
si se comen mi carne los lobos
no podré robarle la mitad
Dios es encargado en un mostrador
da para recibir
quien me dará un crédito mi señor
y tal ves espere demasiado
Quisiera que estuvieras aquí
cerraran las puertas de este infierno
y es posible que me quiera ir
Conseguí licor y me emborrache
en el baño de un bar
fui a dar a la calle de un puntapié
y me sentí muy mal
y si bien yo nunca había bebido
en la cárcel tuve que acabar
la fianza la pago un amigo
las heridas son del oficia...al
Hace cuatro años que estoy aquí
y no quiero salir
ya no paso frío y soy feliz
mi celda da al jardín
y aunque a veces me acuerdo de ella
dibuje su cara en la pared
solamente muero los domingos
y los lunes ya...me siento.... bien.




[Confesiones de Invierno chords][Confesiones de Invierno cifra]
© LaCuerda.net · aviso legal · privacidad · es · en · pt · contacto