Acordes de Guitarra » S »Sui Generis » Fabricante de Mentiras (Tab)

Fabricante de Mentiras
Sui Generis

  • Letra y Acordes
       D         Bm           F#m
    ÉL era un fabricante de mentiras
        Em           G           Asus4
    el tenia las historias de cartón
       D             Bm        F#m
    Su vida era una fábula de lata
        Em          G       A    Edim/A
    sus ojos eran luces de neón
       Bm
    Y nunca tengas fe
         E            G          D       A    C     G    A
    que sus mentiras pueden ser verdad
    
    
    Punteo: A, G, F#, E,
    
    
       D         Bm           F#m
    Ella era una típica inocente
        Em           G           Asus4
    
  • Letra y Acordes
    D         Bm           F#m
    ÉL era un fabricante de mentiras
        Em           G           A
    el tenia las historias de cartón
       D             Bm        F#m
    Su vida era una fábula de lata
        Em          G       A
    sus ojos eran luces de neón
       Bm
    Y nunca tengas fe
         E            G          D         A      C       G      A
    que sus mentiras pueden ser verdad
    
      D            Bm        F#m
    Ella era una típica inocente
      Em              G          A
    zapatos negros, medias de algodón
      D            Bm         F#m
    que solo era feliz en el colegio
      Em           G          A
    
  • Tablatura
    e|------------|
    B|------------|
    G|--2-2--4--6-|
    D|------------|
    A|--0-0--2--4-|
    E|------------|
    
              RE                   SIm
    e|------5-7-----5-7||-5h7p5-------------|
    B|-5/7-----5/7-----||-------7-5/3-5p3-5-|
    G|-----------------||-------------------|
    D|-----------------||-------------------|
    A|-----------------||-------------------|
    E|-----------------||-------------------|
    
                       FA#m
    e|----5----------5-----------5----------------|
    B|5/7--7/5-3--5/7--7/5-3--5/7--7-5------------|
    G|--------------------------------7-4-7/4-----|
    D|---------------------------------------7-4/2|
    
  • +
    ¡Colabora con nosotros!
    Envíanos tu versión de esta canción

Letra de Fabricante de Mentiras
ÉL era un fabricante de mentiras
el tenia las historias de cartón
Su vida era una fábula de lata
sus ojos eran luces de neón
Y nunca tengas fe
que sus mentiras pueden ser verdad
Punteo: A, G, F#, E,
Ella era una típica inocente
zapatos negros, medias de algodón
que solo era feliz en el colegio
que nunca tuvo en su piel amor
Inútil es decir
que lo que le dijeron lo creyó.
Armonías:
Querrán saber el fin de nuestra historia
algunos la podrán imaginar
la nena que sin pena y sin gloria
perdió sus medias y su castidad
Preciso es condenar
al que se burla de nuestra moral
Pero hay algo que no se puede explicar
Porque la niña ríe en vez de llorar
Punteo: A, G, F#, E,
Armonías:



© LaCuerda.net · aviso legal · privacidad · contacto