Acordes de Guitarra » S »String Karma » Cajamarquina (Tab)

Cajamarquina
String Karma

Letras, Notas, Punteos, Tablaturas y Acordes de Guitarra (Tabs & Chords)

  • Tablatura
    e -------5---------------/--5------------/--5----
    B --5p7----7--5----7-----/----7--5----7--/----7--
    G ---------------7-------/---------7-----/-------   Repetir 2 veces
    A -----------------------/---------------/-------
    D -----------------------/---------------/-------
    E -----------------------/---------------/-------
    
    
    
    e --7p9--5-----7p9--5-5-----5--7-7s9--7--/
    B ----------7------------7---------------/
    G ---------------------------------------/           Repetir 2 veces
    A ---------------------------------------/
    D ---------------------------------------/
    E ---------------------------------------/
    
    
    
    e --10---------12---------/---------------------9------/
    B ------12-12------14-14--/--10---------10--12-----12--/
    
  • +
    ¡Colabora con nosotros!
    Envíanos tu versión de esta canción

Letra de Cajamarquina
se tocan las siguientes notas
Bueno este es el intro espero les guste nuevamente
gracias y comenten si les gusto.



© LaCuerda.net · Aviso Legal · Privacidad