Acordes de Guitarra » S »String Karma » Olvídame (Tab)

Olvídame
String Karma

Letras, Acordes y Tabs para Guitarra, Bajo y Ukulele

  • F#m Bm A E F#m x2
    F#m A E x2
    
    F#m                           Bm
    Olvídame yo no soy el que tú piensas
                        A
    te engañado muchas veces
                        E
    el dolor me está matando
                         F#m
    el culpable aquí soy yo.
    
    
    F#m                            Bm
    Olvídame ya no quiero hacerte daño
                        A
    no quiero verte llorando
                          E
    en mi hogar ella me espera
                  F#m
    
  • ----------9-7------)-----------14-12-------)    (rapido)
    --7-9-10------10-7-)--12-14-15-------15-12-)
    -------------------)-----------------------)
    -------------------)-----------------------)
    -------------------)-----------------------)
    -------------------)-----------------------)
    
    --12/14-14-14-14-14-12/14-------)--12/14/12-12--12-12-12-12/14-------
    --------------------------12/10-)-----------------------------12/14--
    --------------------------------)------------------------------------
    --------------------------------)------------------------------------
    --------------------------------)------------------------------------
    --------------------------------)------------------------------------
    
    --10/12-12-12/14-14---------------)--------(-----------------------------
    --------------------12------------)--------(----5-------------5----------
    -----------------------13-11---x2-)--11/5--(4/6---6/4-----4/6---6-6/4----
    ----------------------------------)--------(----------7---------------7--
    ----------------------------------)--------(-----------------------------
    ----------------------------------)--------(-----------------------------
    
  • +
    ¡Colabora con nosotros!
    Envíanos tu versión de esta canción

Letra de Olvídame
Olvídame yo no soy el que tú piensas
te engañado muchas veces
el dolor me está matando
el culpable aquí soy yo.
Olvídame ya no quiero hacerte daño
no quiero verte llorando
en mi hogar ella me espera
por favor olvídame.
Olvídame lo nuestro es imposible
mi corazón tiene dueña
en casa ella me espera
por favor no insistas más
Que castigo cruel tenerte que dejar
que fatalidad estar casado ya...




[Olvídame chords][Olvídame cifra]
© LaCuerda.net · aviso legal · privacidad · es · en · pt · contacto
DINAMICO