Acordes de Guitarra » S »Soziedad Alkoholika » Nada Nuevo (Tab)

Nada Nuevo
Soziedad Alkoholika

Letras, Acordes y Tabs para Guitarra, Bajo y Ukulele

  • e |-----------------------|
    B |-----------------------|
    G |-----------------------|
    D |---9---5-----7---2-----|
    A |---9---5-----7---2-----|
    E |---7---3-----5---0-----|
    
    Tocar unas cuantas veces y luego...
    
    e |--------------------------------|
    B |--------------------------------|
    G |---4--7--9--9------------------|
    D |---4--7--9--9---2--5--7--7------|
    A |---2--5--7--7---2--5--7--7------|
    E |----------------0--3--5--5-------|
    
    Cuando dice........­¿POR QUÉ NO?
    
    e |-------------------------|
    B |-------------------------|
    G |-------------------------|
    D |---9---5-----5---7---9---|
    A |---9---5-----5---7---9---|
    E |---7---3-----3---5---7---|
  • +
    ¡Colabora con nosotros!
    Envíanos tu versión de esta canción






[Nada Nuevo chords][Nada Nuevo cifra]
© LaCuerda.net · aviso legal · privacidad · es · en · pt · contacto
DINAMICO