Acordes de Guitarra » S »Soziedad Alkoholika » A solas con el mundo (Tab)

A solas con el mundo
Soziedad Alkoholika

  • Güenas,la afinación es la estándar,
    Es decir EADGBE:
    
    RIFF 1
    E-------------------
    B-------------------
    G-------------------
    D--4----6-----7-----
    A--2----4-----5-----
    E-------------------
    
    Intro(x8)
    
    La carne cubre el hueso,
    dentro ponen un cerebro
    y a veces también un alma.
    
    Y las mujeres arrojan
    jarrones contra las paredes,
    y los hombres beben demasiado.
    
    
    RIFF2
    E---------------------------
    B---------------------------
    G---------------------------
    D---4----------------7------
    A---2----5----2------5------
    E--------3----0-------------
    
    
    Pero siguen buscando de cama en cama,
    siguen buscando de cama en cama.
    
    RIFF1
    
    La carne cubre el hueso,
    y la carne busca algo mas de carne.
    
    RIFF2
    
    No hay posibilidad
    No hay ninguna posibilidad
    
    RIFF3
    E-------------------
    B-------------------
    G-------------------
    D--------4----7-----
    A---5----2----5-----
    E---3---------------
    
    todos estamos atrapados
    
    RIFF2
    
    Por un singular destino,
    nadie encuen
  • +
    ¡Colabora con nosotros!
    Envíanos tu versión de esta canción






[A solas con el mundo chords][A solas con el mundo cifra]
© LaCuerda.net · aviso legal · privacidad · es · en · pt · contacto