Tablatura para Bajo de Soda Stereo: No existes
Conexión · Inscripción
Letras y Acordes
Pantalla Completa
Imprimir
Versión Texto
Añadir Favorito
Otras Versiones

Mostrar Diagramas
Desfile Automático
Formato del Texto


No existes(BAJ)

Soda Stereo

calidad:
soda0362
AUTOR: Hector Bosio, Gustavo Cerati
ALBUM: Signos (1986)
Intro

1/----------------------------------------------------
2/----------------------------------------------------
3/----------------------------------------------------
4/-1--5--6--10----------------------------------------

Estrofa

1/----------------------------------------------------------------
2/----------------------------------------------------------------
3/----------------------------------------------------------------
4/--1--5--6--10--8--6--10--8--6--10--8--6--10--8--6---------------

1/----------------------------------------------------------------
2/----------------------------------------------------------------
3/----------------------------------------------------------------
4/--1--5--6--10--8--6--10--8--6--10--8--6--10--8--6---------------


1/-----------------------------------------------------
2/-----------------------------------------------------
3/-------------6--5--3--1--0--1------------------------
4/--3--6--5--------------------------------------------

Bridge

1/-------------------------------------------------------
2/------------------------------8--8--8--8--7--7--7--7---
3/--5--5--5--5--8--8--8--8-------------------------------        4 veces
4/-------------------------------------------------------

Estrofa

1/--------------------------------------------------------------
2/--------------------------------------------------------------
3/--------------------------------------------------------------        
4/--1-32 veces -5-32 veces-6-32 veces -10-32 veces ---- 1/-------------------------------------------------------------- 2/-------------------------------------------------------------- 3/--------------------------------------------------------------
4/--1-32 veces -5-32 veces-6-32 veces ------------------- 1/---------------------------------------------------- 2/---------------------------------------------------- 3/---------------------------------------------------- 4veces 4/--10--10--10--10--8--8--8--8--6--6--6--6--6--6--6--6 1/----------------------------------------------------------------------------------- 2/----------------------------------------------------------------------------------- 3/------------------------------------------------------------------------------6--5- 4/--3--3--3--3--3--3--3--3--3--6--6--6--6--6--6--6--6--5--5--5--5--5--5--5--5-------- 1/------------------------------------------------------------------------------------------ 2/------------------------------------------------------------------------------------------
3/---3--3--3--3--3--3--3--3--3--1--1--1--1--1--1--1--1--0-16 veces------------------------
4/----------------------------------------------------------------------1-32 veces-------- 1/-------------------------------------------------------------------------------------------------------- 2/-------------------------------------------------------------------------------------------------------- 3/---------------------------6--6--6--6--5--5--5--5------------------------------------------------------- 4 veces 4/--3--3--3--3--6--6--6--6---------------------------3--3--3--3--6--6--6--6--8--8--8--8--6--6--6--6------- 1/---------------------------------------------------------------------------------------------- 2/----------------------------------------------------------------------------------------------
3/------------------------------------------6-8 veces--5-8 veces--3-8 veces--1-8 veces--
4/--3-8 veces--6-8 veces--5-8 veces------------------------------------------------------- 1/---------------------------------------------------- 2/----------------------------------------------------
3/--0-16 veces--8--32 veces----------------------- 4/---------------------------------------------------- 1/-------------------------------------------------------------------------------------------------------- 2/-------------------------------------------------------------------------------------------------------- 3/---------------------------6--6--6--6--5--5--5--5------------------------------------------------------- 4/--3--3--3--3--6--6--6--6---------------------------3--3--3--3--6--6--6--6--8--8--8--8--6--6--6--6------- Hasta el final. Como pueden ver, es un bajo muy sencillo. Lo único que hay que hacer es seguir el ritmo de la batería .
Este fichero es trabajo propio de su transcriptor y representa su interpretación personal de la canción. El material contenido en esta página es
para exclusivo uso privado, por lo que se prohibe su reproducción o retransmisión, así como su uso para fines comerciales.

© LaCuerda.net · Aviso Legal · Privacidad