Acordes de Guitarra » S »Skay Beilinson » Aves Migratorias (Tab)

Aves Migratorias
Skay Beilinson

Letras, Notas, Punteos, Tablaturas y Acordes de Guitarra (Tabs & Chords)

  • Letra y Acordes
    F#5 A5 B5 D5 (esto va en las estrofas)
    
    Viven  en mi cabeza,
    pájaros libres de plumas doradas,
    Los pensamientos son aves extrañas
    a veces vuelan y no saben volver
    
    Tienen sus nidos en las ramas más altas,
    a veces se pierden y no saben volver…
    
    F#5 A5 G#5 G5 (eso durante el estribillo)
    
    Vuelan y se van, vuelan y se van,
    vuelan y se van, vuelan y se van.
    
    F#5 A5 B5 D5
    Vuelan el cielo buscando mas cielo
    a veces se pierden y no saben volver…
    
    F#5 A5 G#5 G5
    
  • Tablatura
    Introducción
    
    Guitarra 1
    e|----------------------------------------
    B|----------------------------------------
    G|-------------------------------7-7------
    D|-4-4-------7-7-------9-9-------7-7------
    A|-4-4-------7-7-------9-9-------5-5------
    E|-2-2--x-0--5-5--x-0--7-7--x-0-------x-0-
    
    Guitarra
    e|-----2------------|
    B|------------------|
    G|--4b----4-2-4---2-|
    D|--------------4---|
    A|------------------|
    E|------------------|
    
    e|----------|------------
    B|----------|------------
    G|----------|------------ x2
    D|----------|------------
    A|-5h7-5-4--|-222---4----
    E|----------|-----5----2-
    
    e|---------|---------|
    B|---------|---------|
    G|---------|---------| x2
    D|---------|---------|
    A|-5h7-5-4-|-222-4---|
    E|---------|-------2-|
    
    Solo:
    e|----------------------------
    B|----------7-----7-9-7-11/15-
    G|--6~~-7-9---9---------------
    D|----------------------------
    A|----------------------------
    E|----------------------------
    
    -----------------
    -----------------
    -6-4---6b-6b-6b--
    -----6-----------
    ------
  • Tablatura
    Introducción
    
    Guitarra 1
    e|----------------------------------------
    B|----------------------------------------
    G|-------------------------------7-7------
    D|-4-4-------7-7-------9-9-------7-7------
    A|-4-4-------7-7-------9-9-------5-5------
    E|-2-2--x-0--5-5--x-0--7-7--x-0-------x-0-
    
    Guitarra 2
    e|--2---2~--
    B|----2-----
    G|----------
    D|----------
    A|----------
    E|----------
    
    e|--------------------------
    B|--------------------------
    G|--------------------------
    D|-0h2-0--------------------
    A|-------4~--2-2-2-0-2/4----
    E|-----------------------2~-
    
    e|--------------------------
    B|--------------------------
    G|--------------------------
    D|-0h2-0--------------------
    A|-------4~--2-2-2-4--------
    E|-------------------2~-----
    
    Bueno el resto despues porque no tengo tiempo juaa
    
    nos vemos
  • +
    ¡Colabora con nosotros!
    Envíanos tu versión de esta canción

Letra de Aves Migratorias
Viven en mi cabeza,
pájaros libres de plumas doradas,
Los pensamientos son aves extrañas
a veces vuelan y no saben volver
Tienen sus nidos en las ramas más altas,
a veces se pierden y no saben volver…
Vuelan y se van, vuelan y se van,
vuelan y se van, vuelan y se van.
Vuelan el cielo buscando mas cielo
a veces se pierden y no saben volver…
Vuelan y se van, vuelan y se van,
vuelan y se van, vuelan y se van
Se van, se van, vuelan y se van,
se pierden y se van, vuelan y se van.
dedicado a todos los seguidores aguante skay locoo!

Videos de Aves Migratorias
[ver más videos]

[ver todas las canciones]


© LaCuerda.net · Aviso Legal · Privacidad