Acordes de Guitarra » S »Skay Beilinson » El viaje de las partículas (Tab)

El viaje de las partículas
Skay Beilinson

Letras, Acordes y Tabs para Guitarra, Bajo y Ukulele

  • MIm        LAm            MIm G/B     RE REsus4 MIm
    
    e----------------------/---------------------------------
    b----------------------/---------------------------------
    g-----------4-5-7-5-4--/-----4-4-4-2---------------------
    d------2-2-------------/---2---------5-4-5-4-2-----------
    a----------------------/---------------------------------
    E-----(0)--------------/---------------------------------
    
    MIm        LAm             MIm G/B     RE REsus4 MIm
    e----------------------/---------------------------------
    b----------------------/---------------------------------
    g--------4-444-5-4-2-4-/---Repite lo de arriba-----------
    d------2---------------/---------------------------------
    a----------------------/---------------------------------
    E----------------------/---------------------------------
    
    
    MIm                  LAm        MIm
    Cuando se apague el último fuego
    
  • E|------------------------------------------------------|
    B|------------------------------------------------------|
    G|------4~---5-7-5-4---------4-4-4-2--------------------|
    D|---2---------------------2-------------5-4-5-4-2~-----|
    A|------------------------------------------------------|
    E|------------------------------------------------------|
    
    E|------------------------------------------------------|
    B|------------------------------------------------------|
    G|------4~---5-4-2-4---------4-4-4-2--------------------|
    D|---2---------------------2-------------5-4-5-4-2~-----|
    A|------------------------------------------------------|
    E|------------------------------------------------------|
    
    Em                            Am   Em
    Cuando se apague el último fuego
    Em                   D     Em
    Cuando se calle la última voz
    Em                    Am   Em
    Aún estará la tierra girando
    
  • +
    ¡Colabora con nosotros!
    Envíanos tu versión de esta canción

Letra de El viaje de las partículas
Cuando se apague el último fuego
Cuando se calle la última voz
Aún estará la tierra girando
Girando y girando, girando con vos.
Aunque no haya testigos
Aunque no haya más risas
Aunque estallen las bombas
La tierra seguirá aquí.
Cuando se apague la última estrella
Cuando se seque el último mar
Yo voy a estar girando y girando
Fuera del tiempo girando con vos.
Quedará para siempre
Tu mirada en mis ojos
Aunque un día la tierra deje de girar.
La progresion necesaria es: Mim, Lam, Mi, Re, Mi
Como arreglo juega con las notas LAsus2-La-Lasus4-La-Lasus2
Y Resus4
Facundo Madrid
Rosario, Argentina 2007
Cualquier duda, mi mail es iguanadie@hotmail.com
Un abrazo!




[El viaje de las partículas chords][El viaje de las partículas cifra]
© LaCuerda.net · aviso legal · privacidad · es · en · pt · contacto
DINAMICO