Acordes de Guitarra » S »Sin Bandera » Y llegaste tú (Tab)

Y llegaste tú
Sin Bandera

Letras, Acordes y Tabs para Guitarra, Bajo y Ukulele

  • RE - LA - SIm - SOL - SIm - LA
    
    RE                                               LA 
    Yo solía pensar que sabía quien eras tú
              SIm                                      SOL
    no sabía que dentro de tí yo iba a encontrar la luz
              SIm 
    no sabía que existía un mundo así
               LA                   RE
    no sabía que podía ser tan felíz
                      SOL           LA
    no no no no no no nooo
    
    
    RE                                               LA 
    Y la vida pasaba de largo vacía sin emoción
              SIm                                      SOL
    no había nada flotando en el aire abrazándome el corazón
                  SIm 
    y llegaste tú y el mundo me abrazó
    
  • D                                A
    Yo solía pensar que sabía quien eras tú,
         Bm                                G
    no sabía que dentro de ti yo iba a encontrar la luz,
         F#m
    no sabía que existía un mundo así,
         G                A         D
    no sabía que podía ser tan feliz.
    
          D                             A
    Y la vida pasaba de largo vacía sin emoción,
              Bm                                      G        
    no había nada flotando en el aire abrazándome el corazón,
               F#m
    y llegaste tú, y el mundo me abrazó, 
               G                      A
    y llegaste tú, y el mundo se paró
    
    (Coro)
                D               A                  Bm              A
    
  •       Un Abrazo A todos.                       Seba.
    
    Nota: Los acordes invertidos (o con otra nota en el bajo)
    estan escritos con barra al final y la nota. Por ejemplo Bm/A que
    significa Si menor con bajo en La. Hay algunos que la pagina no me
    reconocio. D/A por ejemplo, es un Re mayor con bajo en
    La (5ta al aire). D/C es Re mayor con bajo en Do de la 5ta cuerda.
    
     Saludos!!!
    
    
    Intro
    D    F#m    Bm7   D/A    E7/G#    G     D   Bbmaj7      A7
    
    
    D                               F#m
    Yo solía pensar que sabía quien eras tú
       Bm               Bm/A              G                D/F#
    no sabía que dentro de ti yo iba encontrar la luz
        Em
    
  • D  Em   Bm   Em    G  D    G  A
    
    
    D                                F#m
    Yo solía pensar que sabía quien eras tú
         Bm                               G
    no sabía que dentro de ti yo iba encontrar la luz
         Em                  F#m
    no sabia que existía un mundo así
         G              A         D
    no sabía que podía ser   tan feliz
    
                 G           A
    anananara   naaaaaaa   nanaaa
    
    
         D                              F#m
    Y la vida pasaba de largo vacía sin emoción
             Bm                                      G
    no había nada flotando en el aire abrazándome el corazón
    
  •                D      F#m7                    Bm7     A      
    E|------------------------------2h3p2--0--------------------------------| 
    B|-----0--3-5--5/7--7--5-----3------------3--3/5--0--3------------------|
    G|--2---------------7---------------------------------------------------|
    D|----------------------------------------------------------------------|
    A|-------------0-------2------------------------------------------------|
    E|----------------------------------------------------------------------|
    
    
                      E                   G          D
    E|-----3p2--0---------------------------------5-------------------------| 
    B|--3----------3--3/5--0------3--5--5/6\5--3----------------------------|
    G|----------------------------------------------------------------------|
    D|-----------------------------------------------0----------------------|
    A|----------------------------------------------------------------------|
    E|----------------------------------------------------------------------|
    
                     Dm       A
    E|----------------------------------------------------------------------| 
    B|--3--5--6--8--8/10--10--8---------------------------------------------|
    
  •                D      F#m                     Bm7    A
    e/------------------------------2h3p2--0-----------------/
    B/-----0--3-5--5/7--7--5-----3------------3--3/5--0-3----/
    G/--2---------------7------------------------------------/
    D/-------------------------------------------------------/
    A/-------------0-------2---------------------------------/
    E/-------------------------------------------------------/
    
                      E                   G          D
    e/-----3p2--0---------------------------------5----------/
    B/--3----------3--3/5--0------3--5--5/6\5--3-------------/
    G/-------------------------------------------------------/
    D/-----------------------------------------------0-------/
    A/-------------------------------------------------------/
    E/-------------------------------------------------------/
    
                     Dm       A
    e/-------------------------------------------------------/
    B/--3--5--6--8--8/10--10--8------------------------------/
    G/-------------------------------------------------------/
    
  • +
    ¡Colabora con nosotros!
    Envíanos tu versión de esta canción

Letra de Y llegaste tú
Yo solía pensar que sabía quien eras tú
no sabía que dentro de tí yo iba a encontrar la luz
no sabía que existía un mundo así
no sabía que podía ser tan felíz
no no no no no no nooo
Y la vida pasaba de largo vacía sin emoción
no había nada flotando en el aire abrazándome el corazón
y llegaste tú y el mundo me abrazó
y llegaste tú y el mundo se paró
Y llegaste tú y me sorprendió el poder que había en este amor
y llegaste tú una bendición aun recuerdo el momento en que todo cambió
y llegaste tú y me sorprendió el poder que hay en este amor
y llegaste tú una bendición aun recuerdo cuando llegaste tú
Hoy que estoy en tus brazos recuerdo mi soledad
y me río pensando en las veces que yo te dejé pasar
y llegaste tú y el mundo me abrazó
y llegaste tú y el mundo se paró
al final en el coro los tonos son mas altos
Espero este sin errores..........
Orietta Te quiero un mundo ¡¡¡AiShIteRu!!!
Renzo *´¨´)
¸.·´¸.·´¨) ¸.·*¨)
(¸.·´ (¸.·´ .·´
(¸.·*- > .-''''-.,.-''''-.
! I LOVE !
". YOU ."
'''-.,.- '''




[Y llegaste tú chords][Y llegaste tú cifra]
© LaCuerda.net · aviso legal · privacidad · es · en · pt · contacto