Acordes de Guitarra » S »Sin Bandera » Ves (Tab)

Ves
Sin Bandera

Letras, Acordes y Tabs para Guitarra, Bajo y Ukulele

  • F                                           Dm
    Ves que aún te puedo tocar con un dedo de amor
                                             Bb
    puedo hacerte temblar cuando escuchas mi voz
                                      Bbm                   
    no está todo perdido si quema mi fuego 
                   C7
    tu piel cuando digo tu nombre.
    
    F                                    Dm
    Sé que no todo acabo el amor sigue aquí
                                 Bb
    esto no terminó tú me miras así
                                        Bbm
    como ayer tiene tanto poder lo que siento
                  C7
    o es que lo nuestro es eterno.
    
    CORO
    
    
  • E   C#m7   F#m7   Am    B
    
    
    Verso 01:
    
    E
     Ves que aún te puedo tocar con un dedo de amor
    C#m7
     puedo hacerte temblar cuando escuchas mi voz
    F#m7                               Am
     no está todo perdido si quema mi fuego tu piel
             B
     cuando digo tu nombre
    
    
    Verso 02:
    
    E
     Se que no todo acabó el amor sigue aquí
    C#m7                            F#m7
    
  • MI M
    Ves que aún te puedo tocar con un dedo de amor
    DO m #
    Puedo hacerte temblar cuando escuchas mi voz
    FA m #                           LA M
    No está todo perdido si quema mi fuego tu piel
          SI M
    Cuando digo tu nombre
    
    Se que no todo acabó el amor sigue aquí
    Esto no termino, tu me miras así como ayer
    Tiene tanto poder lo que siento
    Ves que lo nuestro es eterno
    
    MI M    SI M     FA m #
    Yo te puedo amar
         LA M    SI M
    Déjate llevar
    
    LA M
    
  • E |---------------------------------------------------------------------|
    B |-----9-----9---------9------9---------9------9--------9------9-------|
    G |--------11--------------11---------------11--------------11----------|
    D |-----------------9---------------------------------------------------|
    A |--7-------------------------------7----------------6-----------------|
    E |--0------------------------------------------------------------------|
    
    E |-----4-----4-------4-------4-----------------------------------------|
    B |--------7------5-------4-----------4-------4-------4---5-------------|
    G |-------------------------------6-------4-------6---------------------|
    D |---------------------------------------------------------------------|
    A |--4------------------------------------------------------------------|
    E |---------------------------------------------------------------------|
    
    E |-------5-------5-------5-------5---------------------------2---------|
    B |-----------4-------2-------0--------2------------------2-------------|
    G |----------------------------------------2----------2-----------------|
    D |-------------------------------------------4----4--------------------|
    A |----------------------------------------------4----------------------|
    E |---2--------------------------------2--------------------------------|
    
  • E |---------------------------------------------------------------------|
    B |-----9-----9---------9------9---------9------9--------9------9-------|
    G |--------11--------------11---------------11--------------11----------|
    D |-----------------9---------------------------------------------------|
    A |--7-------------------------------7----------------6-----------------|
    E |--0------------------------------------------------------------------|
    
    E |-----4-----4-------4-------4-----------------------------------------|
    B |--------7------5-------4-----------4-------4-------4---5-------------|
    G |-------------------------------6-------4-------6---------------------|
    D |---------------------------------------------------------------------|
    A |--4------------------------------------------------------------------|
    E |---------------------------------------------------------------------|
    
    E |-------5-------5-------5-------5---------------------------2---------|
    B |-----------4-------2-------0--------2------------------2-------------|
    G |----------------------------------------2----------2-----------------|
    D |-------------------------------------------4----4--------------------|
    A |----------------------------------------------4----------------------|
    E |---2--------------------------------2--------------------------------|
    
  • Aqui les dejo tablatura para bajo
    espero que les sirva
    
    G-----------------------------------
    D-----------------------------------
    A--7-7-7-7-4-4-4-4------------------
    E------------------2-2-2-2-5-5-7-7--
    
    Ves que aún te puedo tocar con un dedo de amor
    Puedo hacerte temblar cuando escuchas mi voz
    No está todo perdido si quema mi fuego tu piel
    Cuando digo tu nombre
    
    G-----------------------------------
    D-----------------------------------
    A--7-7-7-7-4-4-4-4------------------
    E------------------2-2-2-2-5-5-7-7--
    
    Se que no todo acabó el amor sigue aquí
    Esto no termino, tu me miras así como ayer
    Tiene tanto poder lo que siento
    Ves que lo nuestro es eterno
    
    PRECORO:
    
    G--------------------------------------
    D--------------------------------------
    A--4-4-4-4---------------2-2-2-2--2-1--
    E---------5-5-5-5-2-2-2-2--------------
    
    Yo te puedo amar
    Déjate llevar
    
    CORO:
    
    G----------------------------------
    D----------------------------------
    A-------------------------4-4-2-2--
    E--5-5-5-5-7-7-
  • esta cancaion se la dedico a todos los panas de venezuela
    que me la estan pidiendo mucho. ahi se las doy.
    
    la mano izquierda solo hace acordes, y la mano derecha
    lleva la melodia. todo las notas escritas en mayuscula
    son acordes y en minuscula son notas solas.
    la mano izquierda arriba:
    el intro es algo asi:
    
    E              E9º             E              EM7
    -------------------------------------------------------------
        g#4-f#4-g#4    g#4-f#4-g#4     g#4-f#4-g#4    g#4-f#4-g#4
    
    
    C#m             C#m            C#m            C#m
    -------------------------------------------------------------
        g#4-f#4-g#4-e4-g#4-d#4-g#4-c#4-g#4-b3-g#4-c#4-g#4-d#4-g#4
    
    
    F#m           F#m          F#m           F#m
    -------------------------------------------------------
        e4-d#4-e4-c#4-e4-b3-e4-a3-g#3-f#3-e3-f#3-g#3-a3-f#3
    
    
    Am          Am            B            B              B7
    --------------------------------------------------------
    b3-c3-e3-b3-a3-f#3-g#3-e3-a3-b2-c#3-a3
  • +
    ¡Colabora con nosotros!
    Envíanos tu versión de esta canción
  • Tutorial
    como tocar ves de sin bandera cantada por rooms guitarra tutorial
    18:54

Letra de Ves
Ves que aún te puedo tocar con un dedo de amor
puedo hacerte temblar cuando escuchas mi voz
no está todo perdido si quema mi fuego
tu piel cuando digo tu nombre.
Sé que no todo acabo el amor sigue aquí
esto no terminó tú me miras así
como ayer tiene tanto poder lo que siento
o es que lo nuestro es eterno.
Yo te puedo amar
déjate llevar.
Ves que mi amor es tu amor
que tu ausencia es dolor
que es amargo el sabor si no estás si te vas
y no regresas nunca más.
Que aún te puedo llenar
con mi piel en tu piel
de pasión que aún se puede salvar la ilusión
para volver a respirar en tu corazón.
Ves que me acuerdo de cada detalle de ti
que es mi único sueño el hacerte feliz

que no importa lo que haya pasado
no importa el dolor si hoy estás a mi lado.
Acordes:




[Ves chords][Ves cifra]
© LaCuerda.net · aviso legal · privacidad · es · en · pt · contacto