Acordes de Guitarra » S »Sin Bandera » Mori (Tab)

Mori
Sin Bandera

Letras, Acordes y Tabs para Guitarra, Bajo y Ukulele

  • Intro: G C = X 2
    
    G
    Y preguntas por mi
    C
    Qué como me va
               G
    Haber como tome 
    
    Tantas cosas que hable
          C
    De la Soledad
                Em
    Que si estoy bien o mal
                A
    Que si puedo reir
                 D
    O si puedo llorar...
    
    G
    
  •              G1                     G2
    
    E------[3]----3------[2]-|-----[3]----3-----[2]--|
    B----------3-----3-------|---------3-----3-------|
    G------------0-----0-----|------------0----0-----|
    D------------------------|-----------------------|
    A------------------------|0/3--[3]----------[3]--|
    E-0/3--[3]-----------[3]-|-----------------------|
    
                 G1                     G2
    
    E------[3]----3------[2]-|-----[3]----3-----[2]--|
    B----------3-----3-------|---------3-----3-------|
    G------------0-----0-----|------------0----0-----|
    D------------------------|-----------------------|
    A--3/5-------------------|-----[3]----------[3]--|
    E------[3]-----------[3]-|-3/5-------------------||
    
    Antes de darte los acordes, debes tener en cuenta que:
    La primera estrofa la tienes que digitar, y las otras
    
  • e|-----3-------3------2--|-----3-------3------2--|
    B|-------3-------3-------|--------3------3-------|
    G|----------0------0-----|-----------0-----0-----|
    D|-----------------------|-----------------------|
    A|-----------------------|-----3-----------------|
    E|-----3-----------------|-----------------------|
    
    
    
    Verso:
    
    Y preguntas por mi
                    e|-----3-------3------2--|
                    B|-------3-------3-------|
                    G|----------0------0-----|
                    D|-----------------------|
                    A|-----------------------|
                    E|-----3-----------------|
    Que como me va
                 e|-----3-------3------2--|
    
  • ESTA ES UNA CANCION RECHERRY SOLO PA LA GENTE LEGALAYS...
    
    
    (*SLIDE)
    
    G|----------------------------------------------------------------|
    D|----------------------------------------------------------------|
    A|--*3/10---------------------------------------------------------|
    E|----------------------------------------------------------------|
    
    G|----------------------------------------------------------------|
    D|----------------------------------------------------------------|
    A|--*3/5-3--*3/5---*3/5-3---*3/5----------------------------------|
    E|---------------3------------------------------------------------|
    
    
    
    ESTO SE TOKA CUANDO DICE ESTO:
    
    
    Y preguntas por mi
    Qué como me va
    Haber como tome 
    Tantas cosas que hable
    De la Soledad
    Que si estoy bien o mal	    
    Que si puedo reir	      
    O si puedo llorar...
    
    
    G|----------------------------------------------------------------|
    D|----------------------------------------------------------------|
    A|----3---3---0
  • +
    ¡Colabora con nosotros!
    Envíanos tu versión de esta canción

Letra de Mori
Y preguntas por mi
Qué como me va
Haber como tome
Tantas cosas que hable
De la Soledad
Que si estoy bien o mal
Que si puedo reir
O si puedo llorar...
Y preguntas por mi
Por curiosidad
Y quisiera decir
Que te extraño a rabiar
Que ya no puedo más
O se me pasará
Pero ya no lo sé
Yo ya no siento más
OJO : en esta parte utilizen G pero en el
tercer traste ok. suena mejor...
Porqué ya nos estoy aqui
MORI
MORI el dia en que te fuiste asi de mi
No estoy
Camino por las calles sin pensar
Oigo sin escuchar
Abrazo sin sentir
Soy el unico muerto que puede caminar
Porqué ya nos estoy aqui
MORI
MORI el dia en que te fuiste asi de mi
No estoy
Qué es mas grande que el SOL
No tiene compasión
No preguntes por mi
Yo ya no estoy aqui...
Aqui pueden volver a tocar con G normal
Y preguntas por mi
De casualidad
Si sali a relucir una conversación
Como otra normal
Si tenia la razón
O si yo estaba mal
No me puede importar...
OJO : en esta parte utilizen G pero en el
tercer traste ok. suena mejor...
Porqué ya nos estoy aqui
MORI
MORI el dia en que te fuiste asi de mi
No estoy
Camino por las calles sin pensar
Oigo sin escuchar
Abrazo sin sentir
Soy el unico muerto que puede caminar
Porqué ya nos estoy aqui
MORI
MORI el dia en que te fuiste asi de mi
No estoy
Qué es mas grande que el SOL
No tiene compasión
No preguntes por mi
Yo ya no estoy aqui...
EADGBE
EADGBE
sAlUdOs Pa lA gEnT cHeVeRe DeL mArIsTaS... y Pa El
TeRcEr AñO Q EsrA MaS cHeVrER k nUkA Y SaLuDos
PaRa lA ChIkA K NuNkA E DeJaDo d aMaR Y NUnkA
Ls dEJaRe dE AmArA y nI lO ArE pOr Q SIeNpRe La hE
AmAdO eSa PeRsOnA Es KeLlY... a eLLa lE DeDiKo eSTa
KaNcIoN pOr k lA AmO mUCHo...




[Mori chords][Mori cifra]
© LaCuerda.net · aviso legal · privacidad · es · en · pt · contacto