Acordes de Guitarra » S »Silvio Rodriguez » El día felíz que está llegando (Tab)

El día felíz que está llegando
Silvio Rodriguez

  • Letra y Acordes
    DO        FA        SOL     DO·FA·SOL
    Se esta arrimando un día feliz
     DO           FA             SOL
    como hace un barco tras los meses
     REm         SOL              DO
    se esta acercando un día de abril
        MI      LAm   (LAm/SOL)  FA
    un día de abril se va a arrimar
     MIm        REm       SOL
    a los finales de noviembre.
    
    Y yo me apego mas al mar
    mi hermano doble de los peces
    yo enciendo leña en el hogar
    que vio brillar la tempestad
    que guía el curso de estos meses.
    
    REm·MIm·FA·SOL·DO·RE·SOL
    SOL·FA·MIm·REm·DO·FA·SOL
    
    
  • Letra y Acordes
    Inicio: C    F   G   C  F  G
    C       F          G      C  F  G  C
    Esta arrimando un día feliz
                 F              G
    como si un barco tras dos meses
    Dm         G              C
    se acercando un día de abril
         E7      Am
    un día de abril
        G        F    Em
    se va a arrimar
               Dm          G
    por los finales de Noviembre
    
              Dm   G      C  F   G  C
    Y yo me apego más al mar
              F             G
    hermano doble de los peces
    Dm            G          C
    yo enciendo leña en el hogar
    
  • Tablatura
                                       C
    e|--5---5---5----3---3----1---1----0°°°---3---3---3----1---1----0---0--
    b|---------------------------------------------------------------------
    g|-5---5---5----4---4----2---2----0------4---4---4----2---2----0---0---
    d|---------------------------------------------------------------------
    a|---------------------------------------------------------------------
    E|---------------------------------------------------------------------
                                                        
                                            C^     F^     G^°°°
      ---------1---1---1----0---0--------------------------3---------------
      --3°°°-------------------------3---3---1--1----------3---------------
      --------2---2---2----0---0-------------0------2--2---4----4°°°-------
      -3----------------------------3---3----2------3------5---------------
      ---------------------------------------3------3------5---------------
      ----------------------------------------------1------3---------------
    
    Puntear rápido los duos de notas,que suenen con muy pequeña diferencia,
    casi al unísono.Los acordes finales C,F y G son mas lentos.
    
    
    
  • +
    ¡Colabora con nosotros!
    Envíanos tu versión de esta canción

Letra de El día felíz que está llegando
Se esta arrimando un día feliz
como hace un barco tras los meses
se esta acercando un día de abril
un día de abril se va a arrimar
a los finales de noviembre.
Y yo me apego mas al mar
mi hermano doble de los peces
yo enciendo leña en el hogar
que vio brillar la tempestad
que guía el curso de estos meses.
REm·MIm·FA·SOL·DO·RE·SOL
SOL·FA·MIm·REm·DO·FA·SOL
Se esta arrimando un día de sol
un día de duendes en añejo
se acerca un pájaro feroz
zumbando al goce de tu olor
se acerca un tiempo de conejos.
Y a mi me escarba la ansiedad
me escarba hondo acá en lo blando
me escarba simple de escarbar
como para que se hunda mas
el día feliz que esta llegando
REm·MIm·FA·DO·RE·SOL
SOL·FA·MIm·REm·DO·FA·MI
MI·LAm·REm·MIm·FA·FA·REm·LAm
REm·MIm·FA·SOL·DO



© LaCuerda.net · aviso legal · privacidad · contacto