Acordes de Guitarra » S »Silvio Rodriguez » El Dulce Abismo (Tab)

El Dulce Abismo
Silvio Rodriguez

Letras, Acordes y Tabs para Guitarra, Bajo y Ukulele

  • C D/F#  G  F  C  G  C
    
    C          D/F#     G      
    Amada,        supon que me voy lejos
    
    F          G        C                 D/F#
    Tan lejos    que olvidare mi nombre
    
    G      F     Em                   Am
    Amada,   quizas soy otro hombre  
    
        G/B       C     Dm    [ D C B    A G]   <--solo el bajo            
    MAs alto y menos viejo
    
    G                     C Bb  A
       Que espera por si mis---mo
    
    F      Em      Dm    G            C             Cadd9
        Alla lejos    alla trepando el dulce abismo
    
    
  • ---------------------------------------------------------------------------------------------------------0-------------0
    --------1------3-1-0-----------0-1-------------1-0-1-------------3-1-0-----------0-1-----------1-0-1-------1---1-----1-1
    ------0------2-------2-0---0-2-----0---0----0--------0---0-----2-------2-0---0-2-----0---0---0-------0-------0-----0---0
    ----2------0-------------3-----------2-----------------2-----0-------------3-----------2---------------2---------2-----2
    --3----------------------3-------3-----------------3-----------------------3-------3---------------3-----------3-------3
    ---------2-------3-----------------------3-----------------2-------3-----------------------3-----------------3---------0
    
    DO       RE/FA#         SOL I-3·1·0
    Amada, supon que me voy lejos
    FA         SOL             DO    RE/FA#
    Tan lejos, que olvidare mi nombre
    SOL    FA              MI MI7 LA7
    Amada, quizas soy otro hombre
                     REm  SOL
    mas alto y menos viejo
          SOL7        DO SIb LA IV-2·III-2·II-0·2·3·I-0·II-3
    Que espera por si mismo
    FA     DO/MI REm    SOL             DO   DO7
    Alla lejos, alla trepando el dulce abismo
    FA     DO/MI REm    SOL             (tab)
    
  • la siguiente es netamente una tablatura
    los acordes de los otros aportes estan bien
    pero esto es para pulir un poco mas el sonido
    la letra aparece encima de la tablatura y las |
    indican mas o menos donde se da cada enfasis es decir
    aproximadamente cada silaba espero que la disfruten
    y por ultimo la dedicacion para yohana pues
    regresare del sol que alumbra, sabiendo que no
    hay ausencia para el dulce abismo
    NOTA: solo aparecen las primeras dos estrofas despues se repite
    solo cambia la cuarta la ultima parte donde aparece *4/
    
    E|-----------------|-----------------|
    B|-------1-------1-|-1-0-----------0-|
    G|-----0-------2---|-----2-0---0-2---|
    D|---2-------0-----|---------3-------|
    A|-3---------------|-----------------|
    E|---------2-------|-----------------|
    
    E|----------------|---------------|---0-|
    B|-1-----1----1-0-|---1-------1---|-1-1-|
    G|-----0-----0----|-----0---0---0-|---0-|
    D|---2------------|-------2-------|-----|
    A|----------------|-3-------------|-----|
    E|---------3------|------
  • +
    ¡Colabora con nosotros!
    Envíanos tu versión de esta canción

Letra de El Dulce Abismo
Amada, supon que me voy lejos
Tan lejos que olvidare mi nombre
Amada, quizas soy otro hombre
MAs alto y menos viejo
Alla lejos alla trepando el dulce abismo
Alla lejos alla trapando el dulce abismo
Amada, supon que no hay remedio
Redmedio, es todo lo que intento
Amada, toam este pensamiento
Colocalo en el centro de todo el egoismo
Y ve que no hay ausencia para el dulce abismo
Amada, supon que en olvido
la noche me deja prisionero
amada, habra un lucero nuevo
que no estara vencido de luz y de optimismo
y habra un sin fin latente bajo el dulce abismo (bis)
Amada, la claridad me acerca
yo guardo, tu guardaras el huerto
Amada, regresare despierto
una manana terca de musca y lirismo
Regresare del sol que alumbra el dulce abismo (bis)




[El Dulce Abismo chords][El Dulce Abismo cifra]
© LaCuerda.net · aviso legal · privacidad · es · en · pt · contacto