Acordes de Guitarra » S »Sebna » Bajo tus alas (Tab)

Bajo tus alas
Sebna

Letras, Acordes y Tabs para Guitarra, Bajo y Ukulele

  •  INTRO: C-G-F-C x2
    
    
                C                  G
     Yo quiero ser... ser como un lirio
                F            C        G
     que no se afana por que vestira-aa
    
                Dm         Fm    C
     Yo quiero estar cerca muy cerca
                 Dm    F        G
     entre tus brazos cerca de ti
    
     misma secuencia de notas
    
     yo quiero ser... ser como un ave
    
     que se preocupa  porque comeraaaa.
    
    
    
  • e -0-8---------0-----------3-3s5-3-------3---------3-1-----------1---
    B ---------------1-------3-------------3---3-----------1---1-------1-
    G -----------0-----0---0-------------0-----0-0---2-------2-----2-----
    D -------------------------------------------------------------------
    A -3---Op2p3---------------------------------------------------------
    E -------------------3-------------3-----------1-------------1-------
    
    e ------1---0h3r0----0h3r0--------------
    B ----1---1-------1--------1-------3----
    G ---------------------------0---0---0--    entonces comienza........
    D --3-----------------------------------
    A ----------3-------3-------------------
    E -----------------------------3--------
    
     El canto se puede acompañar con el mismo arpegeo de la introduccion
     o con el acompañamiento siguiente:
    
    
               C                G                 F
    Yo quiero ser, ser como un lirio, que no se preocupa
    
  • +
    ¡Colabora con nosotros!
    Envíanos tu versión de esta canción

Letra de Bajo tus alas
Yo quiero ser... ser como un lirio
que no se afana por que vestira-aa
Yo quiero estar cerca muy cerca
entre tus brazos cerca de ti
misma secuencia de notas
yo quiero ser... ser como un ave
que se preocupa porque comeraaaa.
yo quiero estar cerca muy cerca
bajo tus alas cerca de ti.




[Bajo tus alas chords][Bajo tus alas cifra]
© LaCuerda.net · aviso legal · privacidad · es · en · pt · contacto
DINAMICO