Acordes de Guitarra » S »Sebna » Mujer Virtuosa (Tab)

Mujer Virtuosa
Sebna

Letras, Acordes y Tabs para Guitarra, Bajo y Ukulele

  •     C               G/B              Am             G6
    e --------------0---------3---------------------------------0--------
    B --1-----3---------0-------0---0h1--1-----3-----1--0-----3-----0h1--
    G ----0-----0---------0-------0--------2-----2--------0--------------
    D ------2-----2---------0----------------2-----2--------0-----0------
    A --3---------------2----------------0-------------------------------
    E --------------------------------------------------3----------------
    
    
        C               G/B              Am             G6
    e --------------0---------3------------------------------------------*
    B --1-----3---------0-------0---0h1--1-----3-----1--0----------------*
    G ----0-----0---------0-------0--------2-----2-------------------0---*
    D ------2-----2---------0----------------2-----2---------------0-----*
    A --3---------------2----------------0---------------------0-2-------*
    E --------------------------------------------------3----------------*
    
    
    Esta es la melodía del principio de lo que creo es un sax:
    (no está transportado)
    
  • +
    ¡Colabora con nosotros!
    Envíanos tu versión de esta canción

Letra de Mujer Virtuosa
Esta es la melodía del principio de lo que creo es un sax:
(no está transportado)
De las bendiciones que Dios me ha dado
No hay duda alguna que tú eres la mejor
Con mucha paciencia también con oración
Un gran gozo hubo en mi corazón (cuando te conocí)
Mujer virtuosa (quién la hallará) quién la hallará
Tu estima es mas que alguna joya
Fuerza y honor (son tu vestido) son tu vestido
Sabiduría hay en tu boca
Muchas mujeres hicieron el bien
Mas tu sobrepasas a todas
Muéstrame tu rostro hazme oír tu voz
Pues hermosa eres y dulce tu voz...
Mujer virtuosa (quién la hallará) quién la hallará
Tu estima es mas que alguna joya
Fuerza y honor (son tu vestido) son tu vestido
Sabiduría hay en tu boca
(no está transportado, los acordes si)
Mujer virtuosa (quién la hallará) quién la hallará
Tu estima es mas que alguna joya
Fuerza y honor (son tu vestido) son tu vestido
Sabiduría hay en tu boca
Salida:
Cualquier comentario escribanme a hectorprs@hotmail.com




[Mujer Virtuosa chords][Mujer Virtuosa cifra]
© LaCuerda.net · aviso legal · privacidad · es · en · pt · contacto
DINAMICO