Acordes de Guitarra » S »Sebastian Yatra » No hay nadie más (Tab)

No hay nadie más
Sebastian Yatra

Letras, Acordes y Tabs para Guitarra, Bajo y Ukulele

  • C  Am  F  G  C
    
    C                                  Am
    Recuerdo aquel día como si fuera hoy
                      F       G                 C
    No hay nada como ella, ni siquiera me encontró
    C                                Am
    Recuerdo todavía la vez que la bese
                    F            G             C
    Fue mi primer amor y ahora escribo su canción
    
    Am             F                     C
    Hay algo mas inexplicable como su mirada
         G              Am              F
    Inigualable como la manera en que me cela
                   C                  G
    Y trata de disimular que no esta mal
    
                C          G             Am       F
    Voy a cuidarte por la noches, voy amarte sin reproches
    
  • F# D#m7 Bm, F#
    
    
    
    F#                                 D#m7
    Recuerdo aquel día como si fuera un hoy
    
                        B         C#
    No hay nada como ella, ni siquiera me encontró
    
    F#                                D#m7
    Recuerdo todavía la vez que la bese
    
              Bbm    B                       C#
    Fue mi primer amor y ahora escribo su canción
    
    
             D#m7       B              F#
    Hay algo mas inexplicable como su mirada
    
    
  •  G
    Recuerdo aquel día
                 Em
    Como si fuera hoy
                      C
    No hay nada como ella
          D             G
    Ni siquiera me encontró
    
    
       G
    Recuerdo todavía
                  Em
    La vez que la besé
                    C
    Fue mi primer amor
        D                 G
    Y ahora escribo su canción
    
    
    
  •    F#              D#m         B   C#  F#
    e|-9-----|-9-----|-----------|-------------------------|
    B|----11-|-----11|-6-7---6-7-|-2-----------------------|
    G|-------|-------|-----------|---4-3-------------------|
    D|-------|-------|-----------|---------3-4---3-4---3-4-|
    A|-9---9-|-9---9-|-6-6---6-6-|-2-2-2---4-4---4-4---4-4-|
    E|-------|-------|-----------|-------------------------|
    
          F#                          D#m
    Recuerdo aquel día, Como si fuera hoy
                      B           C#             F#
    No hay nada como ella, Ni siquiera me encontró
    e|-------|-------|-----|-----|-----|-----|-4h6h4---4-----------|
    B|-11-11-|-11-11-|-7-7-|-7-7-|-4-4-|-6-6-|-----------7---6h7---|
    G|-------|-------|-----|-----|-----|-----|-------------------6-|
    D|-------|-------|-----|-----|-----|-----|-4---4---4-----------|
    A|--9--9-|--9--9-|-6-6-|-6-6-|-2-2-|-4-4-|-----------4---4-4-4-|
    E|-------|-------|-----|-----|-----|-----|---------------------|
    
    
    
  • e|-9-----|-9-----|-------|-------|-----------|------|-------|---------|
    B|----11-|-----11|-6---7-|-6---7-|-----------|------|-------|---------|
    G|-------|-------|-8---8-|-8---8-|-----------|------|-------|---------|
    D|-------|-------|-------|-------|-11---9--8-|------|-3---4-|-3---4---|
    A|-9---9-|-9---9-|-6---6-|-6---6-|-----------|-8---9|-------|---------|
    E|-------|-------|-------|-------|--7---7--7-|-9---9|-2---2-|-2---2---|
    
    
    Recuerdo aquel dia..Como Si fuera hoy .....Ni si quiera.......
    e|-------|-------|-------|-------|-------|-------|--------------|------------|
    B|-11--11|-11--11|-7---7-|-7---7-|-------|-------|-9h11p9--9----|------------|
    G|-------|-------|-8---8-|-8---8-|--8--8-|-10-10-|------------11|--10-11-----|
    D|-------|-------|-------|-------|--9--9-|-11-11-|--------------|---------11-|
    A|-9---9-|-9---9-|-6---6-|-6---6-|-------|-------|-9----9--9--9-|------------|
    E|-------|-------|-------|-------|--7--7-|--9---9|--------------|--11--------|
    
    
    Recuerdo todavia..La vez que la bese,Fue mi primer.......
    e|-------|-------|-------|-------|-------|-------|--------------|-----------|
    B|-11--11|-11--11|-7---7-|-7---7-|-------|-------|-9h11p9--9----|-----------|
    
  • +
    ¡Colabora con nosotros!
    Envíanos tu versión de esta canción
  • Tutorial
    HD
    como tocar NO HAY NADIE MAS en guitarra sebastian yatra
    7:43
  • Tutorial
    HD
    CÓMO tocar NO HAY NADIE MÁS de SEBASTIÁN YATRA
    Cómo tocar ... #20
    10:33
  • Tutorial
    HD
    No hay nadie más Sebastián Yatra guitarra
    3:15
  • Tutorial
    HD
    Acordes / No hay nadie mas - Sebastian Yatra
    2:31
  • Tutorial
    HD
    SEBASTIAN YATRA - No hay nadie más ( Tablatura+acordes+letra+backing track)
    3:17

Letra de No hay nadie más
Recuerdo aquel día como si fuera hoy
No hay nada como ella, ni siquiera me encontró
Recuerdo todavía la vez que la bese
Fue mi primer amor y ahora escribo su canción
Hay algo mas inexplicable como su mirada
Inigualable como la manera en que me cela
Y trata de disimular que no esta mal
Voy a cuidarte por la noches, voy amarte sin reproches
Te voy a extrañar en la tempestad
Y aunque existan mil razones para renunciar
No hay nadie mas (no hay nadie mas)
Se llevo todo, se llevo tristeza
Ya no existe espacio en la melancolía
Porque a su lado todo tiene mas razón
Me lleve sus lagrimas, llegaron risas
Cuando estamos juntos la tierra se paraliza (se paraliza)
Hay algo mas inexplicable como su mirada
Inigualable como la manera en que me cela
Y trata de disimular que no esta mal
Voy a cuidarte por la noches, voy amarte sin reproches
Te voy a extrañar en la tempestad
Y aunque existan mil razones para renunciar
Voy a cuidarte por la noches, voy amarte sin reproches
Te voy a extrañar en la soledad
Y aunque existan mil razones para terminar
No hay nadie mas (no hay nadie mas)
No quiero a nadie mas
No hay nadie mas (no hay nadie)




[No hay nadie más chords][No hay nadie más cifra]
© LaCuerda.net · aviso legal · privacidad · es · en · pt · contacto