Acordes de Guitarra » S »Saratoga » Si amaneciera (Tab)

Si amaneciera
Saratoga

Letras, Acordes y Tabs para Guitarra, Bajo y Ukulele

  • Am                         SOL
    Ahora que mi voz se ha convertido
                 REm
    En apenas un suspiro
         MI
    Debo descansar
    
    Am                        SOL
    Hoy que en la mitad de mi camino
                       REm
    La evidencia me ha vencido
            MI
    Y me ha echo llorar
    
    DO        SOL
    Se que el tiempo curara
    
    Fam/Rem  MI
    Aunque nada siga igual
    
    
  • |-----------------------------------------------------------|
    |------10-9-10p9-----------------------10-------------------|
    |----------------10-10h11-11p10p9-9-11----9--9----11-9------|
    |-9s11-----------------------------------------11-----------|
    |-----------------------------------------------------------|
    |-----------------------------------------------------------|
    
    |------------------------------------7-7-----7--7-----------|
    |------10-10------10-----10--------------9----9-------------|
    |-----------11------11-----11----8s9-------9---9------------|
    |-11s12--------12-----12-----12-----------------------------|
    |-----------------------------------------------------------|
    |-----------------------------------------------------------|
    
    |-----------------------------------------|
    |-----10-10-12-12h14-14-14-15-12-12h14-14-|
    |-----------------------------------------|
    |-9s11------------------------------------|
    |-----------------------------------------|
    |-----------------------------------------|
    
  •    LAm                                 RE
    |----5-4---5p4-------------5-------------5-5-----5-----5--------|
    |--------------5-5p7-5-5-7---5-5---7-5-------7-----7----7-------|
    |--6-----------------------------6-----7--------7---7----7------|
    |---------------------------------------------------------------|
    |---------------------------------------------------------------|
    |---------------------------------------------------------------|
    
      MI
    |----7-7-----7---7-|
    |--------9----9----|
    |--9--------9--9---|
    |------------------|
    |------------------|
    |------------------| 2 veces, en la segunda Leo toca Riff 2
    
    Riff 2 (Leo)
    
    |-5-5-7-7s9-9-9-10-7-7h9-9-9-14-14-12-12-10-10-9-9-7-7-5-5-4-4--|
    |---------------------------------------------------------------|
    
  • e|----5--4--5/4------------------------5--------------|
    B|----7--5-------5/7--7--7/5-----5--7-----5--5---7--5-|
    G|-6--------------------------7-----------6----6------|
    D|----------------------------------------------------|
    A|----------------------------------------------------|
    E|----------------------------------------------------|
    
    e|------5-5-----5-----5-----------7-----7-----7-------|
    B|----------7-----7-----7-----------9-----9-----------|
    G|-6/7--------7-----7-----7--7/9------9-----9---------|
    D|----------------------------------------------------|
    A|----------------------------------------------------|
    E|----------------------------------------------------|
    
    Riff 2
    e|----5--5--7--7/9--9--9-----10--7--7/9--9------------|
    B|------------------------7---------------------------|
    G|-6--------------------------------------------------|
    D|----------------------------------------------------|
    A|----------------------------------------------------|
    
  • No entiendo porque no publican los solos de Saratoga??
    Son sumamente fáciles de sacar, solo hay que ser un poco
    veloz y ponerle dedicación……..
    A veces es buena la improvisación….
    Pero que alguien me tape la boca si digo que a veces
    queremos sacar los solos con son o no??
    
    Bueno diviertanse…. Ponganle empeño y veran como sueña…..
    
    Solo – Si amaneciera
    
    eb|----------------------------------------------------|
    Bb|--------------------------------12-12/14---14-15----|
    Gb|--------------------------111314-----------------14-|
    Db|--------------------111214--------------------------|
    Ab|--7/16/7------111214--------------------------------|
    Eb|----------1214--------------------------------------|
    
    eb|-----------------------------------17-----------------------------|
    Bb|--14/19-17--15-14--15-14------------------------------------------|
    Gb|-------------------------16-14—16b----16b14-16----14-16-14--------|
    Db|-----------------------------------------------16----------16-14--|
    Ab|----
  • e|----4--3--4--3-------|-------------4---|----------|
    B|----6--4-------4--6--|-6--4---4--6---4-|-4---6--4-|
    G|-5-------------------|------6----------|---5------|
    
    e|-----4--4-----4-----4-----|-----6--6-----6-----6--|
    B|----------6-----6-----6---|-----------8-----8-----|
    G|-4h6--------6-----6-----6-|-6h8---------8-----8---|
    
    La 1ra Guitar repite su parte, mientras la 2da suena así:
    
    2da Guitar:
    
    e|---4--4--6--6h8--8--8-|-9--6--6h8--8-|
    B|---6--6--8--8h9--9--9-|-------8h9--9-|
    G|-5--------------------|--------------|
    
    e|-13-13h11-11h9-9h8-8h6-6h4-4h3-3h1-|-1--3--1------|-8-6-5-4-|
    B|-----------------------------------|---------4--4-|---------|
    G|-----------------------------------|--------------|---------|
    
    
  • NOTA:
    
    Espero y te ayude en algo esta tab.
    Si necesitas una tab en especial, escríbeme o visita...
    
    *******************************************
    * http://www.myspace.com/alejandrolauyola *
    *******************************************
    
    - Revisa la afinación de esta canción en especial
    - Pon atención a las instrucciones que están al final
    - CALIFICA SOLO SI LEÍSTE "EL MANUAL"-
    
    F#||-------|-------|-------|-------|-------|-------|-------|-------|
    C#||-------|-------|-------|-------|-------|-------|-------|-------|
    G#||-------|-------|-------|-------|-------|-------|-------|-------|
    D#||-------|-------|-------|-------|-------|-------|-------|-------|
    
    
    -------|-------|-------|-------|-------|-------|-------|-------|
    -------|-------|-------|-------|-------|-------|-------|-------|
    -------|-------|-------|-------|-------|-------|-------|-------|
    -------|-------|-------|-------|-------|-------|-------|-------|
    
    
    -------|-------|-------|-------|-------|-------|-------|-------|
    -------|----
  • +
    ¡Colabora con nosotros!
    Envíanos tu versión de esta canción

Letra de Si amaneciera
Ahora que mi voz se ha convertido
En apenas un suspiro
Debo descansar
Hoy que en la mitad de mi camino
La evidencia me ha vencido
Y me ha echo llorar
Se que el tiempo curara
Aunque nada siga igual
No me quiero resignar
No olvidare
Yo que hasta el momento ignoraba
En el punto en que se hallaba
Esa enfermedad
Siento que la vida es como un hilo
Que se corta de improviso
Y sin avisar
Y en la oscura habitación
Necesito oir tu voz
Ahora duermes junto a mi
Esperare
Si amaneciera sin ti
Yo no se que seria de mi
Hoy la muerte me ha mostrado ya sus cartas
Y no entiendo la jugada
Trato de salir
No quiero admitir
Duermo apenas cinco o seis minutos
Suficientes para hundirme
En la tempestad
Los demonios que hay bajo la cama
Esta noche no se callan
No me dejaran
El reloj marca las seis
Lo mas duro es el final
Y la luz se posara
En el cristal
Huyo a veces pienso en otra cosa
Mi cerebro reacciona
No me deja en paz
Y de nuevo vuelve a sacudirme
Ese frio incontenible
Que es la realidad
El primer rayo de sol
Me ilumina el corazon
Te distingo junto a mi
Mi salvacion
Si amaneciera sin ti
Yo no se que seria de mi
Hoy la muerte me ha mostrado ya sus cartas
Y no entiendo la jugada
Trato de salir
No quiero admitir
Y en la oscura habitación
Necesito oir tu voz
Ahora duermes junto a mi
Esperare
El primer rayo de sol
Me ilumina el corazon
Te distingo junto a mi
Si amaneciera sin ti
Yo no se que seria de mi
Hoy la muerte me ha mostrado ya sus cartas
Y no entiendo la jugada
Trato de salir
No quiero admitir
un saludo para mi ex dorielis
la cual quiero mucho mucho
esta cancion se la dedico a ella




[Si amaneciera chords][Si amaneciera cifra]
© LaCuerda.net · aviso legal · privacidad · es · en · pt · contacto