Acordes de Guitarra » R »Ryan Cabrera » Sólo me faltas tú (Tab)

Sólo me faltas tú
Ryan Cabrera

Letras, Acordes y Tabs para Guitarra, Bajo y Ukulele

  • B           F#
    No quiero hablar
    B        F#
    Ni respirar
    B        F#      B     F#
    Sin aliento ni palabras
             C#     F#
    Solo me faltas tú
    
    B     F#            B       F#
    Pensarás que estás lejos de mí
    B          F#        B    F#
    Y en un rincón de mi mente
                C#        F#        B - F#
    No paro de pensar en ti
    
    B    C#
    Soy débil
          D#m
    Es verdad
    
  • espero que les guste la tablatura no tiene errores
    
    
    e|-----0--x---------x-----------x---------------------------------------------------|
    B|--------x---3-----x--1----1---x---0-----------------------------------------------|
    G|--5-----x---4--4--x--0h2------x---0-----------------------------------------------|
    D|--0-----x---0-----x--0--------x---0-----------------------------------------------|
    A|--------x---------x-----------x---------------------------------------------------|
    E|--3-----x---3-----x--3--------x---3-----------------------------------------------|
    
    Cuando el empiaza a cantar
    e|-------x---------x---------x----------------------------------------------------------|
    B|-------x---------x---------x----------------------------------------------------------|
    G|----5--x---4--4--x---0h2-2-x--4-------------------------------------------------------|
    D|----0--x---0-----x---0-----x--0-------------------------------------------------------|
    A|-------x---------x--------
  • +
    ¡Colabora con nosotros!
    Envíanos tu versión de esta canción

Letra de Sólo me faltas tú
No quiero hablar
Ni respirar
Sin aliento ni palabras
Pensarás que estás lejos de mí
Y en un rincón de mi mente
No paro de pensar en ti
Soy débil
Es verdad
Tengo miedo de lo que vendrá
Si me quieres a tu lado
Alivia este corazón desesperado
Extrañándote en la eternidad
Andando hasta llegar a ti
No esconderé mis sentimientos
Es tiempo de encontrar tu luz
Esperaré hasta que entiendas que
me faltas tú B - F#
De un lado a otro de la habitación
yo sin saber que hacer
Tú como si
no existiera yo
Soy débil
Es verdad
Siento temor de saber el final
Como si fuéramos extraños
En tu mirada se esconde algo
Sé que estarás una vez más en mi camino
Yo te encontraré

Video de Sólo me faltas tú
[]




[Sólo me faltas tú chords][Sólo me faltas tú cifra]
© LaCuerda.net · aviso legal · privacidad · es · en · pt · contacto