Acordes de Guitarra » R »Rojo » Hasta que ya no respire más (Tab)

Hasta que ya no respire más
Rojo

Letras, Acordes y Tabs para Guitarra, Bajo y Ukulele

  • Em   C     G    D     Em  C   G      D
     CUANDO MAS LO NECESITE VI LLEGAR TU AMOR A MI SER
    Em C    G   D            C
     Y  LLENO TODO MI INTERIOR
    Em  C     G     D          Em C     G       D      
     AHORA ESTAS TAN CERCA DE MI Y SIN TI NO PUEDO VIVIR
    Em C    G    D      C      D
     CAUTIVASTE MI CORAZON Y MI AMOR
    
            C*G     C*Em
    coro:JESUS   JESUS
                     C            Bm         
         TE QUIERO AMAR Y CORRESPONDER CON TODAS LAS 
           Am          D
         FUERZAS DE MI SER
            C*G    C*Em
         JESUS, JESUS
                         C                Bm
         POSTRADO A TUS PIES TE QUIERO ADORAR 
                       Am         D
    
  • Em   C9    G Dsus2 (x2)
    
    
    VERSO 1:
    
    Em C9  G      Dsus2
    Cuando más lo necesité
    Em C9     G      Dsus2
    Vi     llegar tu amor a mi ser
    Em C9 G   Dsus2            C9
    Y llenó todo mi interior.
    
    Em C9     G      Dsus2
     Ahora estás tan cerca de mi
    Em C9    G    Dsus2
    Y   sin ti no puedo vivir
    Em C9 G    Dsus2    C9        Dsus2
     Cautivaste mi corazón y mi amor
    
    
    
  • TAB HASTA QUE NO RESPIRE MAS
    
    bueno aqui esta el tab de la song corregido espero les sea de mucha
    utilidad.
    E----------------------|--------------------------------------
    B----------------------|--------------------------------------
    G----------------------|---------------11h12p11---------------
    D-7-9-9/10-9-7H9p7/9/7v|-9-10-10/12-12------------------------
    A----------------------|--------------------------------------
    E----------------------|--------------------------------------
    
    E---------------------------------------|---------------------
    B---------------------------------------|------------10-12-12/13-
    G---------------------------------------|-9h11-11/12----------
    D-10/12-12/14v-10h12P7-7/9-7h9-7-4-4/5v-|---------------------
    A---------------------------------------|---------------------
    E---------------------------------------|---------------------
    
    E-----------------|----10-10/12-------------------------------
    B-12-10h12P10-10v-|-12----------13----12-----12---------------
    G----
  • +
    ¡Colabora con nosotros!
    Envíanos tu versión de esta canción

Letra de Hasta que ya no respire más
CUANDO MAS LO NECESITE VI LLEGAR TU AMOR A MI SER
Y LLENO TODO MI INTERIOR
AHORA ESTAS TAN CERCA DE MI Y SIN TI NO PUEDO VIVIR
CAUTIVASTE MI CORAZON Y MI AMOR
TE QUIERO AMAR Y CORRESPONDER CON TODAS LAS
FUERZAS DE MI SER
JESUS, JESUS
POSTRADO A TUS PIES TE QUIERO ADORAR
HASTA QUE YA NO RESPIRE MAS

ME ABRAZO TU GRACIA Y PERDON ME LLENO TU ESPIRITU
ERES TU EL REY DE MI AMOR
QUIERO ESTAR EN TU HABITACION ESCUCHAR DE TU CORAZON
ERES TU MI AMIGO Y MI DIOS, MI AMOR
FINAL: TE AMO DIOS TE AMO JESUS
EX
ESPERO Y LES SIRVA DE ALGO. ES MI PRIMER TRANSCRIPCION
ASI QUE NO SEAN TAN CRUELES SI ALGO NO SUENA BIEN.
CUALQUIER COMENTARIO ES BIEN RECIBIDO:
ohrfreshyboy@msn.com




[Hasta que ya no respire más chords][Hasta que ya no respire más cifra]
© LaCuerda.net · aviso legal · privacidad · es · en · pt · contacto