Acordes de Guitarra » R »Rojo » Eres Todopoderoso (Tab)

Eres Todopoderoso
Rojo

  • Letra y Acordes
    /Bm-A/C#-D-G Bm A/
    Bm
    
    I Estrofa:
    
    (sin bajo)
       Bm                  G
    La única razón de mi adoración
    D            F#m
    Eres tu mi Jesús
       Bm              G
    Mi único motivo para vivir
    D            F#m
    Eres Tú mi Señor
    
          Bm          G/B
    Mi única verdad está en ti
            D/A             A
    Eres mi luz y mi salvación
          Bm           G/D
    
  • Tablatura
    G:[--7-7-7-9-9-9----------
    D:[------------------7/9--
    
    G:[--7-6---7-6---7-6-7-6---7-6---7-6-7-6---7-6---7-6------ x2
    D:[------7-----7---------7-----7---------7-----7------7/9-
    
    
    e:[-----10/9/5----(esto-lo-hace-una-segunda-guitarra)----
    
       Bm                  G
    La única razón de mi adoración
    D             F#m
    Eres tú mi Jesús
        Bm          G
    Mi único motivo para vivir
    D            F#m
    Eres tú mi Señor
    
          Bm          G                  D
    Mi única verdad está en ti, eres mi luz
    
  • Tablatura
    B)----------------------------10------10-----------10------10-
    G)-1/5-5-5-5-7-7-7-9-9-3--------------------------------------
    D)------------------------------------------------------------
    A)------------------------------------------------------------
    E)------------------------------------------------------------
    
    E)-----------------------10-9----10-9----10-9-10-9----10-9----------
    B)----------------------------10------10-----------10------10-10/12-
    G)-1/5-5-5-5-7-7-7-9-9-3--------------------------------------------
    D)------------------------------------------------------------------
    A)------------------------------------------------------------------
    E)------------------------------------------------------------------
    
    
    VERSOS
    
    ESTE ARPEGIO SOLAMENTE LO HACE LA GUITARRA ELECTRICA EN TODOS LOS
    VERSOS
    
    
    
  • Tab p/Bajo
    Bendiciones a todos los visitantes de la cuerda.net,
    este Tab es muy bueno y muy sencillo, perdón cualquier error,
     y psss escuchen muy bien la canción, (grabada en vivo) y
    Dios les bendiga...
    
    :INTRO:                                                         (x2)
    E-7-7-7-9-9-9-10-10-10--8-8-8-8-8-8-8-8—7-7-7---7-7—-5-5-5---5-5-|-7s|
    A---------------------------------------------9------------7-----|---|
    D----------------------------------------------------------------|---|
    G----------------------------------------------------------------|---|
    
    Mi única verdad... (El numero del () son las veces q se toca esa nota)
    E-------------------------------5(5)-|
    A-------------9----------------------|
    D-9(16)-7(16)---9(8)-12(8)-7(8)------|
    G------------------------------------|
    
    :CORO:              (x2)
    E-7-7-7-5-7-7-7--3-3-3-1-3-3-3---------------|
    A------------------------------5-5-5-7-5-5-5-|
    D--------------------------------------------|
    G--------------------------------------------|
    
    :INTR
  • +
    ¡Colabora con nosotros!
    Envíanos tu versión de esta canción

Letra de Eres Todopoderoso
I Estrofa:
(sin bajo)
La única razón de mi adoración
Eres tu mi Jesús
Mi único motivo para vivir
Eres Tú mi Señor
Mi única verdad está en ti
Eres mi luz y mi salvación
Mi único amor eres Tú Señor
Y por siempre te alabaré
Tu eres Todopoderoso
Eres grande y majestuoso
Eres fuerte, invencible
Y no hay nadie como Tú
II Estrofa:
La única razón de mi adoración
Eres tu mi Jesús
Mi único motivo para vivir
Eres Tú mi Señor
Mi única verdad está en ti
Eres mi luz y mi salvación
Mi único amor eres Tú Señor
Y por siempre te alabaré
Tu eres Todopoderoso
Eres grande y majestuoso
Eres fuerte, invencible
Y no hay nadie como Tú
Tu eres Todopoderoso
Eres grande y majestuoso
Eres fuerte, invencible
Y no hay nadie como Tú
Fin:



© LaCuerda.net · aviso legal · privacidad · contacto