Acordes de Guitarra » R »los Rodriguez » Especies que desaparecen (Tab)

Especies que desaparecen
los Rodriguez

  • Letra y Acordes
    [ Am Em Dm E ] x2
    
    Am              Em        Dm         E
    Somos de una especie que desaparece
    Am              Em         Dm          E
    hasta nuestras diferencias se parecen
    Am         Em           Dm    E
    Somos como el tiempo perdido
    Am              Em       Dm            E
    como palabras dichas al oido de nadie
    Dm                 E             Am  Am/G             C
    Creo que somos los últimos en la Tierra de nuestra clase,
    Dm                E
    por favor, no me dejes.
    
    [ Am Em Dm E ] x2
    
    Am         Em           Dm    E
    Somos como el tiempo perdido
    Am              Em       Dm            E
    
  • Tablatura
    1/---------------------------------------
    2/--------------------------------5-----
    3/-5/4-2-----4p2-----------------7--7-5---
    4/-------2-------5-2---0-2-3----6--------
    5/-----------------------------7---------
    6/---------------------------------------
    
    1/---------------------------------------
    2/---------------------------------------
    3/----5-7b-7----5-7-5------5-7--5--7/9---
    4/--7---------7--------5/7---------------
    5/---------------------------------------
    6/---------------------------------------
    
    
    
    Am              Em        Dm         E
    Somos de una especie que desaparece
    Am              Em         Dm          E
    hasta nuestras diferencias se parecen
    
  • +
    ¡Colabora con nosotros!
    Envíanos tu versión de esta canción

Letra de Especies que desaparecen
Somos de una especie que desaparece
hasta nuestras diferencias se parecen
Somos como el tiempo perdido
como palabras dichas al oido de nadie
Creo que somos los últimos en la Tierra de nuestra clase,
por favor, no me dejes.
Somos como el tiempo perdido
como palabras dichas al oido de nadie
Creo que somos los últimos en la Tierra de nuestra clase,
por favor, no me dejes.
Que eso no pase entre los dos
que eso no pase entre los dos
que eso no pase entre.. los ... dos
Por favor no me dejes
Que eso no pase entre los dos
que eso no pase entre los dos
Que eso no pase entre los dos
que eso no pase entre los dos
No somos los últimos en la Tierra de nuestra clase, uhhh
no me dejes.
Somos de una especie



© LaCuerda.net · aviso legal · privacidad · contacto