Acordes de Guitarra » R »Río » La Universidad (Tab)

La Universidad
Río

  • Letra y Acordes
    INTRO : LA (LA9) DO#m  FA#m  MI  (Bis)
    
    
    
    ESTAR EN LA UNIVERSIDAD ES UNA COSA DE LOCOS
      LA                                     DO#m
    ESTAR EN LA UNIVERSIDAD ES UNA FIESTAS DE MONOS
      LA                                        FA#m
    DOCE AÑOS EN LA MEDICINA, TERMINAR LIMPIANDO UNA OFICINA
       SIm              RE         FA#m                 MI
    
    ESTAR EN LA UNIVERSIDAD ES UNA COSA DE LOCOS
      LA                                     DO#m
    ESTAR EN LA UNIVERSIDAD ES UNA FIESTAS DE MONOS
      LA                                        FA#m
    DERECHO Y ARQUITECTURA, TERMINA SIENDO UNA LOCURA
      SIm             RE       FA#m              MI
    
    
    CORO:
    
  • Tablatura
                        LA UNIVERSIDAD
    
    
    YA SABES, SI ESTA VEZ NO INGRESAS...
    
    
    
    riff1:
    este arpegio se repite varias veces en la cancion
    intro:                                       [X2] =dos veces
    |------------5-5p4---------4-4------------------
    |------------5-5-5---------5-5------------------
    |---7-7p6---------------------------------------
    |---7-7-7-----------4-4p2-----------------------
    |-------------------4-4-------------------------
    |-----------------------------------------------
    
    
    
    
    
  • Tab p/Bajo
    INTRO:
    G--------------------------------------------------------------------
    D--------------------------------------------------------------------
    A---------44444444-99999-77------------------------------------------ x2
    E-55555555-----------------------------------------------------------
    
    CANTO:
    G--------------------------------------------------------------------------
    D-----------------------------/44444444------------------------------------
    A-----------44444444-------------------22222222-55555555-9999999-777777777- x2
    E-55555555……--------55555555……---------------------------------------------
    
    G--------------------------------------------------------------------------
    D--------------------------------------------------------------------------
    A-22222222…-----------------5555555-7777777-5555555-77777777-5555555-------
    E----------22222222-33333333-----------------------------------------------
    
    CORO:
    G--------------------------------------------------------------------------
    D-
  • +
    ¡Colabora con nosotros!
    Envíanos tu versión de esta canción

Letra de La Universidad
ESTAR EN LA UNIVERSIDAD ES UNA COSA DE LOCOS
ESTAR EN LA UNIVERSIDAD ES UNA FIESTAS DE MONOS
DOCE AÑOS EN LA MEDICINA, TERMINAR LIMPIANDO UNA OFICINA
ESTAR EN LA UNIVERSIDAD ES UNA COSA DE LOCOS
ESTAR EN LA UNIVERSIDAD ES UNA FIESTAS DE MONOS
DERECHO Y ARQUITECTURA, TERMINA SIENDO UNA LOCURA
NO LOGRAS ENCONTRAR TRABAJO
SIRVE MUY POCO SER PROFESIONAL
LAS COSAS ME HAN SALIDO MAL
ME RAYA ESTA UNIVERSIDAD
OH OH OH OH OH OH
COSA DE LOCOS
CON TANTO ESFUERZO INGRESASTE
OH OH OH OH OH OH
COSA DE LOCOS
Y AHORA YA TE REVENTASTE
REPETIR INTRO
ESTAR EN LA UNIVERSIDAD ES UNA COSA DE LOCOS
ESTAR EN LA UNIVERSIDAD ES UNA FIESTAS DE MONOS
NO ENTIENDES LO QUE ESTAS HACIENDO, LAS CHICAS SI QUE QUITAN TIEMPO
ESTAR EN LA UNIVERSIDAD ES UNA COSA DE LOCOS
ESTAR EN LA UNIVERSIDAD ES UNA FIESTAS DE MONOS
LOS LIOS CON LO POLICIAS, SON COMO EL PAN DE CADA DIA
COSA DE LOCOS
EXAMENES LLENOS DE TRUCOS, LAS CHELAS CHICLES Y LOS PUCHOS
COSA DE LOCOS
INGRESAS LUEGO DEL COLEGIO, LAS HUELGAS SI QUE TE HACEN VIEJO
ESTANDO EN LA UNIVERSIDAD...
FINAL: Esto se repite varias veces
OH OH OH OH OH OH
COSA DE LOCOS



© LaCuerda.net · aviso legal · privacidad · contacto