Acordes de Guitarra » R »Río » Carol quiere un viaje a Londres (Tab)

Carol quiere un viaje a Londres
Río

  • Letra y Acordes
    INTRO: E  - Am - D 
    
    
    
    E    Am      D 
         UH  UH  UH     4vcs
    
    
    RASGEO
    
        E                  Am             D 
    E-----------------------------------------------------------|
    B----5..--3------------5..--3----------5--3--5--3-----------| tocar solo estas
    G----2..--2------------2..--2----------2--2--2--2-----------| estas cuerdas
    D-----------------------------------------------------------|
    A-----------------------------------------------------------|
    E-----------------------------------------------------------|
    
      E                                   Am                 D 
      caro quiere un viaje a londres y su mami se lo va a pagar
    
  • Tablatura
    INTRO: E  - Am - D 
    
    
    
        E                  Am             D 
    E-----------------------------------------------------------|
    B----5..--3------------5..--3----------5--3--5--3-----------| tocar solo estas
    G----2..--2------------2..--2----------2--2--2--2-----------| estas cuerdas
    D-----------------------------------------------------------|
    A-----------------------------------------------------------|
    E-----------------------------------------------------------|
    
    
    
    
    E    Am      D 
         UH  UH  UH     4vcs
    
    1 caro quiere un viaje a londres y su mami se lo va a pagar
      caro quiere un auto nuevo y su papi se lo va a comprar
    
  • +
    ¡Colabora con nosotros!
    Envíanos tu versión de esta canción

Letra de Carol quiere un viaje a Londres
UH UH UH 4vcs
RASGEO
caro quiere un viaje a londres y su mami se lo va a pagar
caro quiere un auto nuevo y su papi se lo va a comprar
nadie puede negar que el dinero en el mundo
puede comprar lo que pueden soñar
deben amar sin embargo prefieren gastar
caro tiene mil problemas y su mami no la va a escuchar
caro quiere hablar con ella su sicologo la escuchara
nadie puede negar que el dinero en el mundo
puede comprar lo que pueden soñar
deben amar sin embargo prefieren gastar
y para que tener dinero y no poder tener amor
nunca sabran cuantos amigos son amigos de verdad
hay tanta gente equivocada en el
mundo que con dinero no pueden tener amor
FIN: caro quiere un viaje a londres UH UH UH 4vcs



© LaCuerda.net · aviso legal · privacidad · contacto