Acordes de Guitarra » R »Río » Contéstame (Tab)

Contéstame
Río

Letras, Acordes y Tabs para Guitarra, Bajo y Ukulele

  • e----1----1-------1--0-------------------
    B--1--------1-----------1----------------
    G------2------2--------------------------
    D----------------------------------------
    a----------------------------------------
    E----------------------------------------
    
    verso:
    
    F                         Dm
    HOY QUE YA SABES LO QUE PIENSO YO
          A#              LA
    Y CUANTO COSTO DECIRTELO
      F                   Dm
    LAS COSAS EN LA UNI NO ME FUERON BIEN
        A#               LA
    YO NOSIRVO PARA SER UN DOCTOR
    
    e----1----1-------1--0-------------------
    B--1--------1-----------1----------------
    
  • (Introducción batería)
    
    INTRO (REPETIR 2 VECES)
    
    G|----------------------------------------------|
    D|----------------------------------------------|
    A|--8-8-8-8--8-8-8-8----------------------------|
    E|--------------------10-10-10-10--10-10-10-10--|
    
    G|--------------------------------------|
    D|--------------------------------------|
    A|--------------------------------------|
    E|--6-6-6-6--6-6-6-6--5-5-5-5--8-8-8-8--|
    
    
    VERSO 1
    
    Hoy que ya sabes lo que siendo yo…
    G|----------------------------------------------|
    D|----------------------------------------------|
    A|--8-8-8-8--8-8-8-8----------------------------|
    E|--------------------10-10-10-10--10-10-10-10--|
    
    G|--------------------------------------|
    D|--------------------------------------|
    A|--------------------------------------|
    E|--6-6-6-6--6-6-6-6--5-5-5-5--8-8-8-8--|
    
    G|-------------------------------------------------|
    D|-------------------------------------------------|
    A|--8--8-8-8--8--8-8-8-----------------------------|
    E|--
  • +
    ¡Colabora con nosotros!
    Envíanos tu versión de esta canción

Letra de Contéstame
verso:
HOY QUE YA SABES LO QUE PIENSO YO
Y CUANTO COSTO DECIRTELO
LAS COSAS EN LA UNI NO ME FUERON BIEN
YO NOSIRVO PARA SER UN DOCTOR
MUSICA ES LO QUE ME GUSTA A MI
BATERISTA ROCKERO QUIERO SER
TENGO UNA BANDA QUE SUENA MUY BIEN
Y EL AMAUTA YO LO VOY LLENAR
VAS A AYUDARME
CONSTESTAME NO NO NO RESPONDEME
TENDRAS QUE HACERLO AHORA
(2 VECES)
VIEJO COMPRENDE QUE NO TODOS SON
GRANDES DOCTORES COMO TU
ESTE ES EL MUNDO QUE SIEMPRE SOÑE
NO ME OBLIGUES A TENER QUE HUIR
SUELTA MIS RIENDAS
YO LES SUGIERO QUE TOQUEN LA CANCION CON QUINTAS
SUENA MAS ROCKERA PERO WENO DEPENDE DE CADA QUIEN
MUY PRONTO LES MANDO LOS SOLOS Q FALTAN...XD!
WENO ADIOS Y Q VIVA EL ROCK PERUANO!!!!!




[Contéstame chords][Contéstame cifra]
© LaCuerda.net · aviso legal · privacidad · es · en · pt · contacto