Acordes de Guitarra » R »Reik » Vuelve (Tab)

Vuelve
Reik

Letras, Acordes y Tabs para Guitarra, Bajo y Ukulele

  • --------------------------------------------
    --3---3--1------------------------3-3p5-1---
    --4---------2p4-5-4-2-4---------4-----------
    ------------------------------5-------------
    --------------------------------------------
    --3-----------------------------------------
    
    ---------------------------------
    ---------------------------------
    ---2p4-5-4-2-4---2p4-2-----------
    ------------------------5-4-5----
    ---------------------------------
    ---------------------------------
    
    
    
    
    G                     Bm               Em              Am7         D    C
    Sigo buskando el por que te fuiste de aqui dejando un abismo entre tu y yo
    
    
  • G                     Bm/E             Em
    Sigo buscando el por que, te fuiste de aquí,
                Am7         D       Em
    Dejando un abismo entre tu y yo
                          G Em
    No te eh podido olvidar no se
         C             D
    Si a ti te pase lo mismo,
    G               Bm/E              Em
    Toda mi vida cambio, me falta tu amor,
                Am7   D     Em
    Siento que pierdo la razón,
                            G
    y hoy te he vuelto a llorar,
    Em           C                D
    Por que sin ti no aprendo a vivir.
    
    
    Coro:
    C        D                     G
    
  • G                    Em                 G
    Sigo buscando el porque te fuiste de aquí
                C           D    Em
    Dejando un abismo entre tú y yo
                        G               C
    No te he podido olvidar, no se si a ti
                 D
    Te pase lo mismo
    G               Em               G
    Toda mi vida cambio me falta tu amor
                C      D    Em
    Siento que pierdo la razón
                            G               C
    Y hoy te he vuelto a llorar, porque sin ti
                    D
    No aprendo a vivir
    
    Coro:
    C        D                      G
    Vuelve  quiero sentirme en tus brazos
    
  • Q ondas a todos
    aki otra vez pero con esta gran cancion de reik, vuelve
    ya vi los acordes de las otras tablaturas y se oyen bien asi que
    nomas falta el intro, el intermedio y el final de la rola y aqui se
    los dejo.
    se oye 100 %bien dudo mucho q tenga errores pero si los tiene pues ya
    saben a donde escribir, se les agradecera sus correcciones
    
    ok, va asi
    
    
    intro:
    
    
    E ---3----------------------33------------------------------
    A ----------------------------------------------------------
    D ------0-------------2-------------------------------------
    G ------------0-------------------4/5-4--2-2/4--------------
    B ------------3-------1-------------------------------------
    e ----------------------------------------------------------
    
    
    E ---3-----------------3-------------------------------------
    A ----------------------------------------------------------
    D -----------------2-----------------------------0----------
    G ------0----0--0---------2-4-4/5-4-2-4--2/4-2/0--------
  • Aki les dejo esta trancripcion,ojala les guste yo la encuentro super
    
    INTRO:
    
    p:es igual q el h pero descendente
    
    e----------------------------------------------------------------
    B-0---1/3--1-------1-0h1p0----0---0-3---5--1-----0-1-0h1p0-----0-
    G-0--------0------0-------2p0-0--0----0----0----2----------2p0-0-
    D--0--2/4--2------1-------------0---4---5--2-------1-------------
    A----------------------------------------------------------------
    E-3----------3-3--------------3--------------3-----------------3-
    
    e---------------|
    B-1/3-----------|
    G-2/4-4/2p0-----|
    D-0---------2-0-|
    A---------------|
    E---------------|
    
    x: silenciar con la palma de la mano
    
    e----x-----------------x----------------x-----------------
    B-0--x-0-------0----0--x--0-------0--0--x-0-------0----1--
    G-0--x-0-----0------0--x--0-----0----0--x-0-----0------2--
    D--0-x-----0---------1-x------1-------2-x-----2--------3--
    A----x---2-------------x----2-----------x---2----------3--
    E-3--x-3------------3--x--3----------3--x-3----
  • e|---------------------------------------------------------------------------------
    B|---0-----3--1-------0h1-0---0------------3--5--1------0-0h1-0---0----------------
    G|---0-----0--0-------------2-----------0--0--0--0----2---------2----2/4-5-4-2p0---
    D|------0-----2----------------------0-----------2---------------------------------
    A|---------------------------------------------------------------------------------
    E|---3-----------3-3-------------3-----------------3-------------------------------
    
    Verso (x - silenciar con la palma de la mano)
    
            G                    Bm                Em           Am7         D  C
    e|------x-----------|--------x----------|------x---------|--------|----2--2h3------
    B|--0---x--0-------0|--3-----x--3-----3-|--0---x--0------|-----1--|---3--3------1--
    G|--0---x--0-----0--|--4---4-x--4---4---|--0---x--0-----0|----0---|--2--2------0---
    D|--0---x--0---0----|----4---x----4-----|--2---x--2---2--|---2----|-0---------2----
    A|----2-x----2------|--2-----x--2-------|----2-x----2----|--0-----|----------3-----
    E|--3---x--3--------|--------x----------|--0---x--0------|--------|----------------
    
     Sigo buscando el porque   te fuiste de        aqui dejando un    abismo     entre tu y yo
    
    
    
  • Bueno aki les dejo esta transcripcion de estos chavos de reik
    ke la vdd me parece ke suena muy bn :P espero y les guste :)
    
    "ESTA CANCION SOLAMENTE VA ARPEGIADA" asi ke va asi :
    
    INTRO:
    
    e-------------------------------------------------------------
    B-0---3--1------1-0h1h0---0------0-3---5--1-----0--1-0h1h0--0-
    G-0---------------------2-------0----0---------2-----------2--
    D--0--4--2------1------------------4---5--2--------1----------
    A-------------------------------------------------------------
    E-3---------33----------------3--------------3----------------
    
    e--------------|
    B--------------|
    G-2/4-2p0------|
    D---------2p0--|
    A--------------|
    E--------------|
    
    "x" Silenciar con la palma de la mano
    
    e----x-----------------x----------------x--------------1--
    B-0--x-0-------0----0--x--0-------0--0--x-0-------0----1--
    G-0--x-0-----0------0--x--0-----0----0--x-0-----0------2--
    D----x-----0-----------x------1---------x-----2--------3--
    A--2-x---2-----------2-x----2---------2-x---2----------3
  • +
    ¡Colabora con nosotros!
    Envíanos tu versión de esta canción

Letra de Vuelve
Sigo buskando el por que te fuiste de aqui dejando un abismo entre tu y yo
no te eh podido olvidar no se si a ti te pase lo mismo,
toda mi vida kambio, me falto tu amor, siento ke pierdo la razón
y hoy te vuelvo a llorar por ke sin ti no aprendo a vivir
Vuelve kiero sentime en tus brazos,
kiero besarte los labios por siempre kedarme a tu lado
Vuelve sabes ke tu me haces falta, la espera es kruel i lastimaa
Vuelvee llena de amor mi vida
Vuelvee llena de amoooor...mi vida
Como sakarme este amor ke ahora es dolor tal vez olvidarte sea mejor,
pero no puedo engañar a este korazon ke espera por ti
Emm no esta mui diferente de las demas transcripciones
Solamente correji un par de cosas para q sonara como la originall
creo q ahora kedo mucho mejor.
Fer.!




[Vuelve chords][Vuelve cifra]
© LaCuerda.net · aviso legal · privacidad · es · en · pt · contacto